Guitar Tabs, Chords and Lyrics
Major upgrade!! After one year development the new version of Chordie is now online! Please give feedback.


Feel Like a Stranger   Grateful Dead

 
 E-----------------------------------------------------------
 B-----------------------------------------------------------
 G-----------------------------------------------------------
 D-------------------7--5------------------------------------
 A------------------------7--5-------------------------------
 E--5---------------------------8---5------------------------

 


 


 [G] [D] [A]  


 

 
 E-----------------------------------------------------------
 B-----------------------------------------------------------
 G---------------------------4-------------------------------
 D----------------------5h7----7p5--------5------------------
 A-------------------7--------------7-5h7--------------------
 E-------------------------------------------5---------------

 


 


 


 Jerry Riff


 


 


 (^) Slide Up (\) Slide Down (h) Hammer On (p) Pull Off (b) Bend


 


 [A]  


 

 
 E-----------------------------------------------------------
 B-----------------------------------------------------------
 G-----------------------------------------------------------
 D--5-7--5-7--5-7--5-7--5-7--5-4-----------------------------
 A-------------------------------7---------------------------
 E---------------------------------5----5-3-5----------------


Important: The song above is NOT stored on the Chordie server. The original song is hosted at www.xguitar.com. Chordie works as a search engine and provides on-the-fly formatting. Chordie does not index songs against artists'/composers' will. To remove this song please click here.

This song is displayed as text-only. Transposing and tuning is only available for chordpro-songs.
Rate #1 of 2 versions

Login - add to songbook

SHARE PAGE  




You need to log in to post comments