Beat It On Down The Line

Grateful Dead

 FFFFFCFC
           Well this job I've got is just a little too hard,
 G
Running out of money, Lord, I need more pay.
 CF
Gonna wake up in the morning Lord, gonna pack my bags,
 CADGCFC
I'm gonna beat it on down the line.  
 FC
I'm goin' down the line, goin down the line,
 GC
Goin' down the line, goin down the line,
 FCA
Goin' down the line, goin down the line, 
 CADGCFC
 Beat it on down the line.  
Yes I'll be waiting at the station Lord, when that train pulls on by,
I'm going back where I belong.
I'm going back to that same old used-to-be,
Down in Joe Brown's coal mine.
Coal mine, coal mine, coal mine, coal mine.
Coal mine, coal mine, coal mine, coal mine.
Coal mine, coal mine, coal mine, coal mine.
Down in Joe Brown's coal mine.
Solo:
-3h5p3-----------3-3------------3-5-3-------------------------
-------5p3---3h5------5p3---3h5-------5-3---3-5-3---3---------
-----------5--------------5---------------5-------5---5-----5-
--------------------------------------------------------7-5---
--------------------------------------------------------------
--------------------------------------------------------------
------------5p3---------------3--5--7--10---8-10--12--12-10--8-
----------3-----5-3---3-5---0----------------------------------
------0-5-----------5---------4--5--7--10---9-10--12--12-10--9-
-2--2----------------------------------------------------------
--3------------------------------------------------------------
---------------------------------------------------------------
-----5--5p3---3-/5-/5-----3-5------------------------------------
-5/7--------5---------3/5-----3-5-----3(5)-3-1-3-1-----1---------
----------------------------------5-2--------------2-0---2-0-----
-------------------------------------------------------------2---
---------------------------------------------------------------3-
-----------------------------------------------------------------

Yeah, I'm goin' back to that shack way across that railroad track,
Uh huh, that's where I think I belong.
Got a sweet woman, Lord, she's waitin' there for me,
And that's where I'm gonna make my happy home.
Happy home, happy home, happy home, happy home.
Happy home, happy home, happy home, happy home.
Happy home, happy home, happy home, happy home.
That's where I'm gonna make my happy home.








A C D F G
variations - click chord images
Transpose chords:
Tuning:
Cool service:
View: Size:
A  A  A
Rating:
Layout:
  • Currently 2.7/5 Stars.
  • 1
  • 2
  • 3
  • 4
  • 5
 
Accuracy:
  • Currently 2.6/5 Stars.
  • 1
  • 2
  • 3
  • 4
  • 5
 
click stars to rate
Chordie recommends:
Learn to play guitar with video-based, online guitar lessons at JamPlay.com
Songbook:
Login to add this song to your songbook
Support the artist
Preview/buy this song
MSN Music
Why this non-profit ad?

 
login to add comments/video/corrections