Guitar Tabs, Chords and Lyrics
Major upgrade!! After one year development the new version of Chordie is now online! Please give feedback.


Morning Dew   Grateful Dead

 
 ||----2--------------------------------
 ||----3--------------------------------
 ||----2--------------------------------
 ||----0-----------3--------------2--0--
 ||--------0-3--3-----------0--3--------
 ||--------------------1--3-------------
 ----------------------------------------||
 --------10p8h10-------------------------||
 -9p7h9-----------------5-------5--------||
 -------------------5h7----5h7----5h7----||
 -------------------------------------5--||
 ----------------------------------------||
 -10p8h10~--8p7h8--------10--------10-
 ------------------10h12-----10h12----
 -------------------------------------
 -------------------------------------
 -------------------------------------
 -------------------------------------
 ----2--------------------------------
 ----3--------------------------------
 ----2--------------------------------
 ----0-----------3--------------2--0--
 --------0-3--3-----------0--3--------
 --------------------1--3-------------

 


 


 [D]Walk me out in the [C]morning [G]dew my [D]honey,


 [D]Walk me out in the [C]morning [G]dew to[D]day.


 [F]I can't walk you out in the [C]morning [Em]dew my [D]honey,


 [F]I can't walk you out in the [C]morning [Em]dew to[D]day.


 


 I thought I heard a baby cry this morning,


 I thought I heard a baby cry this today.


 You didn't hear no baby cry this morning,


 You didn't hear no baby cry today.


 


 Where have all the people gone my honey,


 Where have all the people gone today.


 There's no need for you to be worrying about all those people,


 You never see those people anyway.


 


 I thought I heard a young man moan this morning,


 I thought I heard a young man moan today.


 I thought I heard a young man moan this morning,


 I can't walk you out in the morning dew today.


 


 

 
 --------------------------------------8--8-9-10--10--8/10-10~-
 ----------------------------7--8--10---10---------------------
 -----------------5-5-6-7--9-----------------------------------
 -0--2--4--5--7----7-------------------------------------------
 --------------------------------------------------------------
 --------------------------------------------------------------

 


 


 Guitar 2 - 2X


 


 

 
 -----------------------------2
 -----------------------------3
 -----------------------------2
 0-2---0----------------------0
 --3---2-----0--3--0--3--4-----
 ----------3-------------------
 -----12--12-------15--15------14--14--------------------------------------
 ------------------------------------------15p13---15p13---15p13---15p13---
 -/12-----12---/16-----16--/14-----14---14------14------14------14------14-
 --------------------------------------------------------------------------
 --------------------------------------------------------------------------
 --------------------------------------------------------------------------
 -14~------14----15---14-15-17--17p15p14---14~----5----------------
 -------------15------------------------15--------5h7--7-----------
 -14~--/14---------------------------------14~---------7h9p7---7---
 ------------------------------------------------------------9---9-
 ------------------------------------------------------------------
 ------------------------------------------------------------------

 


 2x


 

 
 ||---------------------0-------------------------||
 ||-------------------1---3-1---------------------||
 ||-------0-2---2-0-2---------2-0---0-2-0---------||
 ||-3-2-3-------------------------2-------2-0---0-||
 ||-------------------------------------------3---||
 ||-----------------------------------------------||


Important: The song above is NOT stored on the Chordie server. The original song is hosted at www.xguitar.com. Chordie works as a search engine and provides on-the-fly formatting. Chordie does not index songs against artists'/composers' will. To remove this song please click here.

This song is displayed as text-only. Transposing and tuning is only available for chordpro-songs.
Rate #5 of 13 versions

Jango Player

Login - add to songbook

SHARE PAGE  




You need to log in to post comments