Guitar Tabs, Chords and Lyrics


At The Library   Green Day




Date: Tues, December 29 1998

Group: Green Day
Album: 1039/smoothed out slappy hours
Released: 1990 lookout records
Track: 1
Title: at the library

pm - palm mute
intro   
pm___|   |___|   |___|   |___|   |___|   |___| 
|-----------------------------------------------------------------|
|-----------------------------------------------------------------|
|-7-7--7--5-5--5--7-7--7--5-5--5--7-7--7--5-5--5--4-4-4-4-4-4-4-4-|
|-7-7--7--5-5--5--7-7--7--5-5--5--7-7--7--5-5--5--4-4-4-4-4-4-4-4-|
|-5-5--5--3-3--3--5-5--5--3-3--3--5-5--5--3-3--3--2-2-2-2-2-2-2-2-|
|-----------------------------------------------------------------|

verse

|---------------------------------|
|---------------------------------|
|-------------4-------5-------7---|
|-----5-----4---4---5---5---7---7-|
|---5---5-2-------3-------5-------|
|-3-------------------------------|

also played in power chords

|-----------------------------|
|-----------------------------|
|-------4-4-4-5-5-5-7-7-7-7-7-|
|-5-5-5-4-4-4-5-5-5-7-7-7-7-7-|
|-5-5-5-2-2-2-3-3-3-5-5-5-5-5-|
|-3-3-3-----------------------|

chorus

|-------------------------------------------------------------------------
|-------------------------------------------------------------------------
|-----------7-7-7-7-7-7-7-----------7-7-7-7-7-7-7-----------7-7-7-7-7-7-7-
|-2-2-2-2-2-7-7-7-7-7-7-7-2-2-2-2-2-7-7-7-7-7-7-7-2-2-2-2-2-7-7-7-7-7-7-7-
|-2-2-2-2-2-5-5-5-5-5-5-5-2-2-2-2-2-5-5-5-5-5-5-5-2-2-2-2-2-5-5-5-5-5-5-5-
|-0-0-0-0-0---------------0-0-0-0-0---------------0-0-0-0-0---------------

 -----------------|
 -----------------|
 -5-5-5-5-5-5-5-7-|
 -5-5-5-5-5-5-5-7-|
 -3-3-3-3-3-3-3-5-|
 -----------------|

why did you have....
pm______________________________________________|
|-----------------------------------------------------------------|
|-----------------------------------------------------------------|
|-------------------------------------------------7-7-7-7-7-7-7-7-|
|-5--5--5--5--5--5--5--5--5--5--5--5--5--5--5--5--7-7-7-7-7-7-7-7-|
|-5--5--5--5--5--5--5--5--5--5--5--5--5--5--5--5--5-5-5-5-5-5-5-5-|
|-3--3--3--3--3--3--3--3--3--3--3--3--3--3--3--3------------------|

lyrics

hey there lookin' at me tell me what do you see
but you quickly turn your head away
try to find the words i could use
don't have the courage to come up to you
my chance is looking abit grey
staring across the room are you leaving soon?
i just need a little time
what is it that drives me mad girls like you that i never had
what is it about you that i adore?
what makes me go so insane that makes me feel so much pain
what is it about you that i adore?
staring across the room
why did you have to leave so soon?
why did you have to walk away?
oh well it happened again
she walked away with her boyfriend
maybe we'll meet again someday


Important: The song above is NOT stored on the Chordie server. The original song is hosted at www.xguitar.com. Chordie works as a search engine and provides on-the-fly formatting. Chordie does not index songs against artists/composers will. To remove this song please click here.

This song is displayed as text-only. Transposing and tuning is only available for chordpro-songs.

Login - add to songbook

Rating click stars to rate

Layout
Accuracy

SHARE PAGE  




You need to log in to post comments