Give Me Novacaine

Green Day

 C#5A#5F#5G#5
e|---------------------------------------------------------|
B|---------------------------------------------------------|
G|-6-6-6-6-------------------------------------------------|
D|-6-6-6-6----8-8-8-8----444444444444444--666666666666666--|
A|-4-4-4-4----8-8-8-8----444444444444444--666666666666666--|
E|------------6-6-6-6----222222222222222--444444444444444--|


Chorus:
F#5 G#5 x3
e|--------------|
B|--------------|
G|--------------|

D|-4444--66666--|
A|-4444--66666--|
E|-2222--44444--|

Bridge:
C#5 G#5 F#5 x2
e|----------------------|
B|----------------------|
G|-6-6------------------|
D|-6-6--6-6--4-4444444--|
A|-4-4--6-6--4-4444444--|
E|------4-4--2-2222222--|


Outro:
 C#5F5A#5G#5F#5
e|----------------------------------------|
B|----------------------------------------|
G|-6-6-6-6--------------------------------|
D|-6-6-6-6----3-3-3-3----8-8-8--6-6-6--4--|
A|-4-4-4-4----3-3-3-3----8-8-8--6-6-6--4--|
E|------------1-1-1-1----6-6-6--4-4-4--2--|

City of the ***ed

Intro:
 F#5G#5
e|-----------|
B|-----------|
G|-----------|
D|-4-----6---|
A|-4-----6---|
E|-2-----4---|


Verse:
 C#5A#5G#5F#5G#5
e|----------------------------|
B|----------------------------|
G|-6---6----------------------|
D|-6---6---8---6------4---6---|
A|-4---3---8---6------4---6---|
E|---------6---4------2---4---|


Chorus:
 A#5G#5C#5F#5A#5G#5F#5
e|-----------------------------------------|
B|-----------------------------------------|
G|-------------6---------------------------|
D|-8-----6-----6-----4-----8-----6-----4---|
A|-8-----6-----4-----4-----8-----6-----4---|
E|-6-----4-----------2-----6-----4-----2---|


I Don't Care

Intro:
G#5 C#5 G#5 C#5 F#5 C#5 G#5 x5
e|-----------------------------------------------|
B|-----------------------------------------------|
G|--------6------------6------------6------------|
D|-6------6-----6------6-----4------6-------6----|
A|-6------4-----6------4-----4------4-------6----|
E|-4------------4------------2--------------4----|


Intro lead:
e|-----------------------------------------------|
B|---------------------6-----7-7-77-6-------9v---|
G|--------6-6-6----------8-6----------8-6-8------|
D|-6-6-66-------6-6-66---------------------------|
A|-----------------------------------------------|
E|-----------------------------------------------|


Riff 1:
F#G#5 C#5 A5G#5 x4
e|--------|---------------|
B|--------|---------------|
G|--------|--6------------|
D|-4-6----|--6-----7-6----|
A|-4-6----|--4-----7-6----|
E|-2-4----|--------5-4----|


Verse:
A5G#5 x8
e|-------------------------------|
B|-------------------------------|
G|-------(bass)------------------|
D|------------------------7-6----|
A|-4-4-4-4-4-4-4-4-4-4----7-6----|
E|------------------------5-4----|


Chorus:
F#5 G#5 C#G#5 x3 F#5 G#5
e|--------------------------------|
B|--------------------------------|
G|-----------6--------------------|
D|-4----6----6-6--------4----6----|
A|-4----6----4-6--------4----6----|
E|-2----4------4--------2----4----|


Riff 4:
F#G#5 C#5 x4
e|-------------|
B|-------------|
G|--------6----|
D|-4-6----6----|
A|-4-6----4----|
E|-2-4---------|


Outro
 C#5G#5
e|-------------|
B|-------------|
G|-6-6-6-66----|
D|-6-6-6-66-6--|
A|-4-4-4-44-6--|
E|----------4--|

Dearly Beloved

G#5 C5 C#5 G#5D#5 x6
e|-----------------------|
B|-----------------------|
G|------5----6-------8---|
D|-6----5----6----6--8---|
A|-6----3----4----6--6---|
E|-4--------------4------|


Tales of Another Broken Home

Intro:
G#5 F#5 C#5 x4
e|-------------------------------|
B|-------------------------------|
G|--------(bass)------------6----|
D|-6--------------------4---6----|
A|-6--------------------4---4----|
E|-4---4-4-4-4-4-4-4----2--------|


Main Riff:
 G#5F#5C#5
e|-------------------------------|
B|-------------------------------|
G|--------------------------6----|
D|-6-6-6-6-6-6-6-6-6----4---6----|
A|-6-6-6-6-6-6-6-6-6----4---4----|
E|-4-4-4-4-4-4-4-4-4----2--------|


Chorus
C# G# C# G# C#G# D# G# D# G# D#G# x2
e|-------------------------------------|
B|-------------------------------------|
G|-6-----6-----6-----8-----8-----8-----|
D|-6--6--6--6--6-6---8--6--8--6--8-6---|
A|-4--6--4--6--4-6---6--6--6--6--6-6---|
E|----4-----4----4------4-----4----4---|


Solo 1:
x2
e|----------------------------------------------|
B|----------------------------------------------|
G|-10-13---13-15-11-13------11-10--10-11-8-10---|
D|----------------------------------------------|
A|----------------------------------------------|
E|----------------------------------------------|


Solo 2: x2
e|------------------------------------------------------------|
B|------------------------------------------------------------|
G|-9p8p6-9p8p6-9p8p6-9p6---11p9p8-11p9p8-11p9p8-11p9p8-11p8---|
D|----------------------8----------------------------------10-|
A|------------------------------------------------------------|
E|------------------------------------------------------------|



A#5 C#5 F#5 F5 G#5
variations - click chord images
Transpose chords:
Tuning:
Cool service:
View: Size:
A  A  A
Rating:
Layout:
  • Currently 1.6/5 Stars.
  • 1
  • 2
  • 3
  • 4
  • 5
 
Accuracy:
  • Currently 2.4/5 Stars.
  • 1
  • 2
  • 3
  • 4
  • 5
 
click stars to rate
Chordie recommends:
Learn to play guitar with video-based, online guitar lessons at JamPlay.com
Songbook:
Login to add this song to your songbook
Support the artist
Preview/buy this song
MSN Music
Why this non-profit ad?

 
login to add comments/video/corrections