Guitar Tabs, Chords and Lyrics


Holiday   Green Day



Tabbed by:Matt
Email:mbabenko@yahoo.com

This is a song off GD’s new album “American Idiot” go on LAUNCH.com to hear it

Tuning:Standard


Intro x4
e|-----------------------------------------------------
B|------------------------------------------------
G|--9------5---------------------------------------
D|--9-x3---5-x3---5-x3---7-x3---------------------------
A|--7------3------5------7-----------------------------
E|----------------3------5--------------------------------

Verse1 x5
e|----------------------------------------------------
B|----------------------------------------------------
G|--10-----6----------8-------------------------------
D|--10-x2--6-x2-6-----8-x2----------------------------
A|---8-----4----6-x2--6-------------------------------
E|--------------4-------------------------------------

Then play the pre-chorus
e|---------------------------------------------
B|---------------------------------------------
G|---5-5-5-5-5-5-5-5-5-------------------------
D|---5-5-5-5-5-5-5-5-5-------------------------
A|---3-3-3-3-3-3-3-3-3-------------------------
E|---------------------------------------------

Chorus
e|----------------------------------------------------
B|----------------------------------------------------
G|-------6-----------8------------6-------------5-----
D|-3-----6-x4--6-----8-x4---3-----6-x4---6------5-x5--
A|-3-x4--4-----6-x4--6------3-x4--4------6��"x4---3-----
E|-1-----------4------------1------------4------------

Then Play the Intro
And the Verse riff x3 then the pre-chorus..then the verse riff 3 more times and then another pre-chorus and then the chorus…and then the bridge

Bridge x2
e|----------------------------------------------
B|----------------------------------------------
G|---------6---3--8--------------8--5--10-------
D|-33--66--6---3--8--8---33--66--8--5--10-------
A|-33--66--4---1--6--8---33--66--6--3--8--------
E|-11--44------------6---11--44-----------------

Solo
e|----------------------------------8---8------------------
B|-6-6-6-8-9------------8-8-8----6----6----6-6-6-8-9-------
G|-----------8-6-5-5-5-------5----------------------8-6-5--
D|---------------------------------------------------------
A|---------------------------------------------------------
E|---------------------------------------------------------

Solo (Continued)
e|---------8-8-8-8--12-12-12-12-12-12-12-12��" 13~----------
B|-8-8-8-8-8-8-8-8---8--8--8--8--8--8--8--8-------------
G|--------------------------------------------------------
D|--------------------------------------------------------
A|--------------------------------------------------------
E|--------------------------------------------------------

Only Bass in the Next Verse until towards the end you play
e|---------------------------------------------------------------------
B|---------------------------------------------------------------------
G|---8--5--10---5-5-5-5-5-5-5-5-5-5-5-5-5-5-5-5------------------------
D|---8--5--10---5-5-5-5-5-5-5-5-5-5-5-5-5-5-5-5------------------------
A|---6--3--8----3-3-3-3-3-3-3-3-3-3-3-3-3-3-3-3------------------------
E|---------------------------------------------------------------------

The play the chorus two times and on the 2nd time extend double the amount you play the last chord in the chorus…then play the intro 4 times and on the fourth only play until the second chord and the this..

Outro
e|-------------------------------------------------------
B|-------------------------------------------------------
G|--8---5---10~------------------------------------------
D|--8---5---10~------------------------------------------
A|--6---3---8-~------------------------------------------


Important: The song above is NOT stored on the Chordie server. The original song is hosted at www.xguitar.com. Chordie works as a search engine and provides on-the-fly formatting. Chordie does not index songs against artists/composers will. To remove this song please click here.

This song is displayed as text-only. Transposing and tuning is only available for chordpro-songs.

Login - add to songbook

Rating click stars to rate

Layout
Accuracy

SHARE PAGE  




You need to log in to post comments