Chordie logo

St. Jimmy   Green Day



Band- Green Day
Song-St.Jimmy
Tuning- EADGBE
Album-American Idiot
 i just got there new cd n it sux but this is
an awesome song

INTRO
Play the PM reely fast
|------------------------------------
|------------------------------------
|----------------------------------7-
|---7-7777777777777777777777777777-7-
|---7-7777777777777777777777777777-5-
|---5-5555555555555555555555555555---  X3
PM    ............................

|--------------------
|--------------------
|------------------7-
|---7-777777777777-7-
|---7-777777777777-5-
|---5-555555555555--- X2
PM    ............

|-------------------
|-------------------
|------------7--9-6-
|---7-777777-7--9-6-
|---7-777777-5--7-4-
|---5-555555--------
PM    ......

VERSE 1
|-------------------------
|-------------------------
|--------77777-9999-------
|---7777-77777-9999-77777-
|---7777-55555-7777-77777-
|---5555------------55555- X6

CHORUS
|---------------------------------------
|---------------------------------------
|---77777777----------77777777-9-9-9999-
|---77777777-77777777-77777777-9-9-9999-
|---55555555-77777777-55555555-7-7-7777-
|------------55555555-------------------

Pre-VERSE
|-------------------------
|-------------------------
|--------77777-9999-------
|---7777-77777-9999-77777-
|---7777-55555-7777-77777-
|---5555------------55555-

|-----------------------------------
|-----------------------------------
|--------77777-9999-14-14-14-14-14--
|---7777-77777-9999-14-14-14-14-14--
|---7777-55555-7777-12-12-12-12-12--
|---5555----------------------------


VERSE 2
|-------------------------
|-------------------------
|--------77777-9999-------
|---7777-77777-9999-77777-
|---7777-55555-7777-77777-
|---5555------------55555- X4

CHORUS
|---------------------------------------
|---------------------------------------
|---77777777----------77777777-9-9-9999-
|---77777777-77777777-77777777-9-9-9999-
|---55555555-77777777-55555555-7-7-7777-
|------------55555555-------------------

BRIDGE
|---------------------
|---------------------
|-----7---7-999999999-
|---7-7-7-7-999999999-
|---7-5-7-5-777777777-
|---5---5------------- X4

|-------------------------
|-------------------------
|--------99999-5555-88888-
|---7777-99999-5555-88888-
|---7777-77777-3333-66666-
|---5555------------------ X4

|----------------------------------------
|----------------------------------------
|-----------7-7-7-7--9-9-9-9--14-14-14-14-
|---7-7-7-7-7-7-7-7--9-9-9-9--14-14-14-14-
|---7-7-7-7-5-5-5-5--7-7-7-7--12-12-12-12-
|---5-5-5-5-------------------------------

|-----------------------------------

|-----------------------------------
|---14-14-14-14-7777-999999999999-9-
|---14-14-14-14-7777-999999999999-9-
|---12-12-12-12-5555-777777777777-7-
|-----------------------------------

SOLO
|-----------------------------------
|--------------------------------17-
|---99-9-77-7/12-12--11-11-14-14----
|---xx-x-xx-x/x--x---x--x--x--x-----
|---77-7-55-5/10-10--9--9--12-12----
|-----------------------------------

|-------------------------
|-------------------------
|--------7777----77-------
|---7777-7777-99-77-77777-
|---7777-5555-99-55-77777-
|---5555------77----55555- X4

END
|---------------------------
|---------------------------
|------7-99------7-999999---
|---77-7-99-7-77-7-999999-7-
|---77-5-77-7-77-5-777777-7-
|---55------5-55----------5-

LAST
|--------
|--------
|--------
|---7777-
|---7777-
|---5555-



Important: The song above is NOT stored on the Chordie server. The original song is hosted at www.xguitar.com. Chordie works as a search engine and provides on-the-fly formatting. Chordie does not index songs against artists/composers will. To remove this song please click here.

This song is displayed as text-only. Transposing and tuning is only available for chordpro-songs.

Login - add to songbook

Rating click stars to rate

Layout
Accuracy

SHARE PAGE  

You need to log in to post comments