"yes"; ?> St. Jimmy by Green Day - guitar chords, guitar tabs and lyrics - chordie

St. Jimmy

Green Day


Band- Green Day Song-St.Jimmy Tuning- EADGBE Album-American Idiot i just got there new cd n it sux but this is an awesome song
INTRO Play the PM reely fast |------------------------------------ |------------------------------------ |----------------------------------7- |---7-7777777777777777777777777777-7- |---7-7777777777777777777777777777-5- |---5-5555555555555555555555555555--- X3 PM ............................
|-------------------- |-------------------- |------------------7- |---7-777777777777-7- |---7-777777777777-5- |---5-555555555555--- X2 PM ............
|------------------- |------------------- |------------7--9-6- |---7-777777-7--9-6- |---7-777777-5--7-4- |---5-555555-------- PM ......
VERSE 1 |------------------------- |------------------------- |--------77777-9999------- |---7777-77777-9999-77777- |---7777-55555-7777-77777- |---5555------------55555- X6
CHORUS |--------------------------------------- |--------------------------------------- |---77777777----------77777777-9-9-9999- |---77777777-77777777-77777777-9-9-9999- |---55555555-77777777-55555555-7-7-7777- |------------55555555-------------------
Pre-VERSE |------------------------- |------------------------- |--------77777-9999------- |---7777-77777-9999-77777- |---7777-55555-7777-77777- |---5555------------55555-
|----------------------------------- |----------------------------------- |--------77777-9999-14-14-14-14-14-- |---7777-77777-9999-14-14-14-14-14-- |---7777-55555-7777-12-12-12-12-12-- |---5555----------------------------
VERSE 2 |------------------------- |------------------------- |--------77777-9999------- |---7777-77777-9999-77777-
|---7777-55555-7777-77777- |---5555------------55555- X4
CHORUS |--------------------------------------- |--------------------------------------- |---77777777----------77777777-9-9-9999- |---77777777-77777777-77777777-9-9-9999- |---55555555-77777777-55555555-7-7-7777- |------------55555555-------------------
BRIDGE |--------------------- |--------------------- |-----7---7-999999999- |---7-7-7-7-999999999- |---7-5-7-5-777777777- |---5---5------------- X4
|------------------------- |------------------------- |--------99999-5555-88888- |---7777-99999-5555-88888- |---7777-77777-3333-66666- |---5555------------------ X4
|---------------------------------------- |---------------------------------------- |-----------7-7-7-7--9-9-9-9--14-14-14-14- |---7-7-7-7-7-7-7-7--9-9-9-9--14-14-14-14- |---7-7-7-7-5-5-5-5--7-7-7-7--12-12-12-12- |---5-5-5-5-------------------------------
|----------------------------------- |----------------------------------- |---14-14-14-14-7777-999999999999-9- |---14-14-14-14-7777-999999999999-9- |---12-12-12-12-5555-777777777777-7- |-----------------------------------
SOLO |----------------------------------- |--------------------------------17- |---99-9-77-7/12-12--11-11-14-14---- |---xx-x-xx-x/x--x---x--x--x--x----- |---77-7-55-5/10-10--9--9--12-12---- |-----------------------------------
|------------------------- |------------------------- |--------7777----77------- |---7777-7777-99-77-77777- |---7777-5555-99-55-77777- |---5555------77----55555- X4
END |--------------------------- |--------------------------- |------7-99------7-999999--- |---77-7-99-7-77-7-999999-7- |---77-5-77-7-77-5-777777-7- |---55------5-55----------5-
LAST |-------- |-------- |-------- |---7777- |---7777- |---5555-
this is probably about 99% correct so leave comments n rate my tab!!!!






















variations - click chord images
Transpose chords:
Tuning:
Cool service:
View: Size:
A  A  A
Rating:
Layout:
  • Currently 0/5 Stars.
  • 1
  • 2
  • 3
  • 4
  • 5
 
Accuracy:
  • Currently 2.6/5 Stars.
  • 1
  • 2
  • 3
  • 4
  • 5
 
click stars to rate
Chordie recommends:
Learn how to play guitar at JamPlay.com
Songbook:
Login to add this song to your songbook
Support the artist
Preview/buy this song
MSN Music
Why this non-profit ad?

 
login to add comments/video/corrections