Chordie logo

Burnout     Green Day




Date: Fri, April 16 1999

Group: Green Day
Album: Dookie
Released: 1994 reprise records
Track: 1
Title: burnout
verse                                                                     
                                                  
|-----------------------------------------------------------------
|-----------------------------------------------------------------
|-------------4-4-4-4-4-4-------------4-4-4-4---------------------
|-4-4-4-4-4-4-4-4-4-4-4-4-4-4-4-4-4-4-4-4-4-4-2-2-2-2-4-4-4-4-4-4-
|-4-4-4-4-4-4-2-2-2-2-2-2-4-4-4-4-4-4-2-2-2-2-2-2-2-2-4-4-4-4-4-4-
|-2-2-2-2-2-2-------------2-2-2-2-2-2---------0-0-0-0-2-2-2-2-2-2-

 -----------------------------|
 -----------------------------|
 -----------------------------|
 -2-2-2-2-2-2-6-6-6-6-6-6-6-6-|
 -2-2-2-2-2-2-6-6-6-6-6-6-6-6-|
 -0-0-0-0-0-0-4-4-4-4-4-4-4-4-|

chorus

|---------------------------------------------------------------------
|---------------------------------------------------------------------
|-4-4-4-4-4-4-------------4-4-----------------4-4-4-4-4-4-------------
|-4-4-4-4-4-4-4-4-4-4-4-4-4-4-2-2-4-4-4-4-4-4-4-4-4-4-4-4-2-2-2-2-2-2-
|-2-2-2-2-2-2-4-4-4-4-4-4-2-2-2-2-4-4-4-4-4-4-2-2-2-2-2-2-2-2-2-2-2-2-
|-------------2-2-2-2-2-2-----0-0-2-2-2-2-2-2-------------0-0-0-0-0-0-
                                                                      
 -----------------|
 -----------------|
 -6-6-6-6-6-6-6-6-|
 -6-6-6-6-6-6-6-6-|
 -4-4-4-4-4-4-4-4-|
 -----------------|

bridge

|---------------------------------------|
|---------------------------------------|
|---------------------------------------|
|-4-4-2-4---4-4-2-4---4-4-2-4---4-4-2-4-|
|-4-4-2-4---4-4-2-4---4-4-2-4---4-4-2-4-|
|-2-2-0-2---2-2-0-2---2-2-0-2---2-2-0-2-|

lyrics

i declare i don't care no more
i'm burning up and out and growing bored
in my smoked out boring room 
my hair is shagging in my eyes
dragging my feet to hit the street tonight
to drive along these shit town lights
i'm not growing up, i'm just burning out
and i stepped in line to walk amongst the dead
apathy has rained on me
now i'm feeling like a soggy dream
so close to drowning but i don't mind
i've lived in this mental cave
throw emotions in the grave
hell, who needs them anyway



Important: The song above is NOT stored on the Chordie server. The original song is hosted at www.xguitar.com. Chordie works as a search engine and provides on-the-fly formatting. Chordie does not index songs against artists/composers will. To remove this song please click here.

This song is displayed as text-only. Transposing and tuning is only available for chordpro-songs.

Rating click stars to rate

Layout
Accuracy

SHARE PAGE  

You need to log in to post comments