Guitar Tabs, Chords and Lyrics


Longview   Green Day




Date: Wed, April 28 1999

Group: Green Day
Album: Dookie
Released: 1994 reprise records
Track: 4
Title: longview

h - hammer on
chorus

|-------------|
|-------------|
|-6-6-6-6-6-6-|
|-6-6-6-6-6-6-|
|-4-4-4-4-4-4-|
|-------------|

|-----------------------------------|
|-----------------------------------|
|-------------------------8-8-8-8-8-|
|-8-6-8-6-8-6-8-6-6-4-6-4-8-8-8-8-8-|
|-8-6-8-6-8-6-8-6-6-4-6-4-6-6-6-6-6-|
|-6-6-6-6-6-6-6-6-4-4-4-4-----------|

bridge

|-------------------------|
|-------------------------|
|-8-8-8-8-8-8-6-6-6-6-6-6-|
|-8-8-8-8-8-8-6-6-6-6-6-6-|
|-6-6-6-6-6-6-4-4-4-4-4-4-|
|-------------------------|

outro

|-------------------11-|
|-8h9-9-6-----8h9-9-11-|
|-8-8-8-6-----8-8-8----|
|----------------------|
|----------------------|
|----------------------|

lyrics

sit around and watch the tube but nothings on
change the channels for an hour or two
twiddle my thumbs just for a bit 
i'm sick of all the same old shit
in a house with unlocked doors and i'm fucking lazy
bite my lip and close my eyes take me away to paradise
i'm so damned bored i'm going blind and i smell like shit
peel me off this velcro seat and get me moving 
i sure as hell can't do it by myself
i'm feeling like a dog in heat 
barred indoors from the summer street 
i locked the door to my own cell and i lost the key
i got no motivation, where is my motivation
no time for motivation, smoking my inspiration
sit around and watch the phone but no one's calling 
call me pathetic call me what you will
my mother says to get a job, but she don't like the one she's got
when masterbation's lost it's fun you're fucking breaking
bite my lip and close my eyes, take me away to paradise
i'm so damned bored i'm goin blind, and lonliness has to suffice
bite my lip and close my eyes slipping away to paradise
some say "quit or i'll go blind" but it's just a myth


Important: The song above is NOT stored on the Chordie server. The original song is hosted at www.xguitar.com. Chordie works as a search engine and provides on-the-fly formatting. Chordie does not index songs against artists/composers will. To remove this song please click here.

This song is displayed as text-only. Transposing and tuning is only available for chordpro-songs.

Login - add to songbook

Rating click stars to rate

Layout
Accuracy

SHARE PAGE  




You need to log in to post comments