Chordie logo


Church On Sunday   Green Day



GREEN DAY - Church on Sunday
from "Warning" (2000)

Intro and verse:
    A           D     E
----0-----------2-----0-----------
----2-----------3-----0-----------
----2-----------2-----1-----------
----2-----------0-----2-----------
----0-----------------2-----------
----------------------0-----------

when it gets to the line "..lack of sleep" you play:

  F#m    A      E
---2-----0------0------------------------
---2-----2------0------------------------
---2-----2------1------------------------
---4-----2------2------------------------
---4-----0------2------------------------
---2------------0-------------------------

you play that twice. Then to the chorus which is the same is the intro and verse. The last time on the chorus, you just play A to E (skip the D).

That's it. There are a few parts at the end with the A, D, and E chords, but you'll just have to learn the rhythms yourselves.

The only other thing is the last two chords of the song, which go:

  F      A
--1------0--------
--1------2--------
--2------2--------
--3------2--------
--3------0--------
--1---------------


Important: The song above is NOT stored on the Chordie server. The original song is hosted at www.xguitar.com. Chordie works as a search engine and provides on-the-fly formatting. Chordie does not index songs against artists/composers will. To remove this song please click here.

This song is displayed as text-only. Transposing and tuning is only available for chordpro-songs.

Login - add to songbook

Rating click stars to rate

Layout
Accuracy

SHARE PAGE  




You need to log in to post comments