Fashion Victim

Green Day

 A5
--------
--------
--2--2--
--2--2--
--0--0--
--------

Verse:
 A5C#minF#5D5A/C#E5
---------------------------------------------------
---------5--5--------------------------------------
---2--2--6--6--------------------------------------
---2--2--6--6--4--4--4--4--7--7--7--7--2--2--2--2--
---0--0--4--4--4--4--4--4--5--5--4--4--2--2--2--2--
---------------2--2--2--2--------------0--0--0--0--

at the "when you auction off your life" line, play:
 BminGE
------------------------0----------------
--3---------------------0----------------
--4-----------4---------1----------------
--4-----------5---------2----------------
--2-----------5---------2----------------
--------------3---------0----------------

at "let's go" play:
 A5E5
-----------------------------------------
-----------------------------------------
-2--2------------------------------------
-2--2-----------------2------------------
-0--0-----------------2------------------
--------3--3---2--2---0------------------

at end repeat:
 A5D5
--------------
--------------
--2------2----
--2------0----
--0-----------
--------------


































A/C# A5 Bmin C#min D5 E E5 F#5 G
variations - click chord images
Transpose chords:
Tuning:
Cool service:
View: Size:
A  A  A
Rating:
Layout:
  • Currently 2.7/5 Stars.
  • 1
  • 2
  • 3
  • 4
  • 5
 
Accuracy:
  • Currently 2.7/5 Stars.
  • 1
  • 2
  • 3
  • 4
  • 5
 
click stars to rate
Chordie recommends:
Get acoustic guitar lessons and electric guitar lessons at JamPlay.com
Songbook:
Login to add this song to your songbook
Support the artist
Preview/buy this song
MSN Music
Why this non-profit ad?

 
login to add comments/video/corrections