Guitar Tabs, Chords and Lyrics


1000 Miles    Grinspoon



Song- 1000 Miles
Artist- Grinspoon
Album- New Detention
Tabbed By- Paul Strutt
Email- hekaton@hotmail.com

Intro
instrumental from a banjo or something like that.
Transcribed to guitar if ya wanna play it is like this:

e---------------------------------------------------------------
B---------------------------------------------------------------
G--------------------------------------------------------------- (play 7 times)
D---------------------------9----------10-----------------------
A-7----10--7--10--7--7--7-------7--7--------7--7-----^10----7---
E---------------------------------------------------------------


Guitar intro:
After banjo intro guitar comes in with a bit of distortion

e------------------------------------------------------------------
B------------------------------------------------------------------
G------------------------------------------------------------------
D------------------------------------------------------------------
A-------------------------2-------3--------------------------------
E---0--3--0--3--0--0--0-------0------0---^3--------0--3--0--3------

E------------------------------------------------------------------
B------------------------------------------------------------------
G------------------------------------------------------------------
D------------------------------------------------------------------
A--------------2----3----------------------------------------------
E---0--0---0------0----0--^3---------------------------------------

play melody through twice

E----------
B----------
G----------               (play at end of 2nd time)
D--2-------
A--2-------
E--0-------


Verse:
e-----------------------------------------------------------
B-----------------------------------------------------------
G-----------------------------------------------------------        (play 4 times)
D-------------------------------------------------2---------
A-------------------------2-------3---------------2---------
E---0--3--0--3--0--0--0------0-------0---^3-------0---------



Chorus.
E-------------------------------------------------------------------
B-------------------------------------------------------------------
G--5------4---3---------------- ------------------------------------
D--5------4---3-----------------------------------------------------
A--3------2---1--------------------------------2-------3------------
E----------------------0---3--0--3--0--0--0-------0------0---^3-----

E-------------------------------------------------------------------
B-------------------------------------------------------------------
G----------3--4-----------------------------------------------------
D--7-------3--4-----------------------------------------------------
A--7-------1--2-------------------------------2-------3-------------
E--5--------------------0---3--0--3--0--0--0-------0------0---^3----

E-------------------------------------------------------------------
B-------------------------------------------------------------------
G--5------4---3-------------- --------------------------------------
D--5------4---3-----------------------------------------------------
A--3------2---1-----------------------------2-------3---------------
E-------------------0---3--0--3--0--0--0-------0------0---^3--------

E-------------------------------------------------------------------
B-------------------------------------------------------------------
G---------3--4------------------------------------------------------
D--7------3--4----2--------2--------2--------2--------(2)-----------
A--7------1--2----0--------2--------2--------2--------(2)-----------
E--5--------------0--------0--------0--------0--------(0)-----------
Last chord in bracket- only play in first chorus.




Song Order:

Banjo intro
Guitar intro
Verse
Chorus
Verse
Bridge (no guitar)
Chorus x2 (first time through don't play last four
 E chords only on last time to end the song.)



Important: The song above is NOT stored on the Chordie server. The original song is hosted at www.xguitar.com. Chordie works as a search engine and provides on-the-fly formatting. Chordie does not index songs against artists'/composers' will. To remove this song please click here.

This song is displayed as text-only. Transposing and tuning is only available for chordpro-songs.

Login - add to songbook

Rating click stars to rate

Layout
Accuracy

SHARE PAGE  




You need to log in to post comments