Chordie logo


High    Guano Apes



Title: High
Artist: Guano Apes
Album: Walking On A Thin Line

Instrument: Guitar

Tabbed by: Paciente8159 AKA Klayman

Tuning: Standard (E A D G B E)

This is more or less what I get from listening this song.
It's no complicated so I hope you enjoy it!

Intro: (Slight Distorted w\ Wha-Wha)

E|----------------|----------------|----------------||
B|----------------|----------------|----------------||
G|---------6-6-8-8|----------------|----------------||
D|-----8-8--------|-6--8---9-9-----|-8-8-----6--6h8-||
A|-6-6------------|------------7-7-|-----7-7--------||
E|----------------|----------------|----------------||

E|----------------|----------------|----------------||
B|----------------|----------------|----------------||
G|---------6-6-8-8|-----11-11-11-11|--11-11-11-11---||
D|-----8-8--------|-6-8--9--9--9--9|---9--9--9--9---||
A|-6-6------------|------7--7--7--7|---7--7--7--7---||
E|----------------|------0--0--0--0|---0--0--0--0---||

4x
E|----------------|----------------|----------------|----------------||
B|-11-11-11-11----|-11-11-11-11----|-11-11-11-11----|-12-12-12-12----||
G|-11-11-11-11----|-11-11-11-11----|-13-13-13-13----|-13-13-13-13----||
D|--9--9--9--9----|--9--9--9--9----|-13-13-13-13----|-13-13-13-13----||
A|--7--7--7--7----|--7--7--7--7----|-11-11-11-11----|-11-11-11-11----||
E|--0--0--0--0----|--0--0--0--0----|----------------|----------------||

Verse1: (Slight Distorted w\ Wha-Wha)

4x
E|----------------|----------------|----------------||
B|----------------|----------------|----------------||
G|---------6-6-8-8|----------------|----------------||
D|-----8-8--------|-6--8---9-9-----|-8-8-----6--6h8-||
A|-6-6------------|------------7-7-|-----7-7--------||
E|----------------|----------------|----------------||

3x (w\ other guitar doing a feedback kind of solo)
E|----------------|----------------|----------------||
B|----------------|----------------|----------------||
G|----------------|----------------|----------------||
D|----------------|----------------|----------------||
A|-6-6--6--6---6--|-6-6--6--6--7-7-|7-7--7-7h8p7----||
E|----------------|----------------|----------------||

Pre-chorus:
E|----------------|----------------|----------------||
B|----------------|----------------|----------------||
G|----------------|-----11-11-11-11|--11-11-11-11---||
D|----------------|------9--9--9--9|---9--9--9--9---||
A|-6-6--6--6---6--|-6-6--7--7--7--7|---7--7--7--7---||
E|----------------|------0--0--0--0|---0--0--0--0---||

Chorus1:

4x
E|----------------|----------------|----------------|----------------||
B|-11-11-11-11----|-11-11-11-11----|-11-11-11-11----|-12-12-12-12----||
G|-11-11-11-11----|-11-11-11-11----|-13-13-13-13----|-13-13-13-13----||
D|--9--9--9--9----|--9--9--9--9----|-13-13-13-13----|-13-13-13-13----||
A|--7--7--7--7----|--7--7--7--7----|-11-11-11-11----|-11-11-11-11----||
E|--0--0--0--0----|--0--0--0--0----|----------------|----------------||

Verse2: (Similar to Verse1 but shorter and w\ slight variations)

Chorus2:

3x
E|----------------|----------------|----------------|----------------||
B|-11-11-11-11----|-11-11-11-11----|-11-11-11-11----|-12-12-12-12----||
G|-11-11-11-11----|-11-11-11-11----|-13-13-13-13----|-13-13-13-13----||
D|--9--9--9--9----|--9--9--9--9----|-13-13-13-13----|-13-13-13-13----||
A|--7--7--7--7----|--7--7--7--7----|-11-11-11-11----|-11-11-11-11----||
E|--0--0--0--0----|--0--0--0--0----|----------------|----------------||

E|----------------|----------------|----------------|----------------||
B|----------------|----------------|----------------|----------------||
G|--7--7--7--7----|--7--7--7--7----|--7--7--7--7----|--7--7--7--7----||
D|--7--7--7--7----|--7--7--7--7----|--7--7--7--7----|--7--7--7--7----||
A|--5--5--5--5----|--5--5--5--5----|--5--5--5--5----|--5--5--5--5----||
E|--5--5--5--5----|--5--5--5--5----|--5--5--5--5----|--5--5--5--5----||

Bridge: (no guitar just bass and drums)

Chorus3:

7x (I think it's 7 times)
E|----------------|----------------|----------------|----------------||
B|-11-11-11-11----|-11-11-11-11----|-11-11-11-11----|-12-12-12-12----||
G|-11-11-11-11----|-11-11-11-11----|-13-13-13-13----|-13-13-13-13----||
D|--9--9--9--9----|--9--9--9--9----|-13-13-13-13----|-13-13-13-13----||
A|--7--7--7--7----|--7--7--7--7----|-11-11-11-11----|-11-11-11-11----||
E|--0--0--0--0----|--0--0--0--0----|----------------|----------------||

3x
E|----------------|----------------|----------------|----------------||
B|----------------|----------------|----------------|----------------||
G|--7--7--7--7----|--7--7--7--7----|--7--7--7--7----|--7--7--7--7----||
D|--7--7--7--7----|--7--7--7--7----|--7--7--7--7----|--7--7--7--7----||
A|--5--5--5--5----|--5--5--5--5----|--5--5--5--5----|--5--5--5--5----||


Important: The song above is NOT stored on the Chordie server. The original song is hosted at www.xguitar.com. Chordie works as a search engine and provides on-the-fly formatting. Chordie does not index songs against artists/composers will. To remove this song please click here.

This song is displayed as text-only. Transposing and tuning is only available for chordpro-songs.

Login - add to songbook

Rating click stars to rate

Layout
Accuracy

SHARE PAGE  




You need to log in to post comments