Guitar Tabs, Chords and Lyrics


Quietly    Guano Apes



Artist: Guano Apes
Title: Quietly
Album: Walking on a thin line
Tabbed by: Sebastian Braun
Tuning: Standard

Intro/Verse:    (w/distortion)
E|-12-11-11----12-11-11----12-11-11----12-11-11----|
B|--9--9--9-----9--9--9-----9--9--9-----9--9--9----|
G|--9--9--9-----9--9--9-----9--9--9-----9--9--9--o-|
D|-----------------------------------------------o-|
A|-------------------------------------------------|
E|-------------------------------------------------|

After 2 times a second clean guitar comes in (it's the same as the bass does
all the time):
E|---------------------------------------------------------------------|
B|---------------------------------------------------------------------|
G|---------------------------------------------------------------------|
D|-9-9-9-9-9-9-9-9-1111111111111111--6-6-6-6-6-6-6-6--6-6-6-6-6-6-6-6--|
A|-7-7-7-7-7-7-7-7--9-9-9-9-9-9-9-9--4-4-4-4-4-4-4-4--4-4-4-4-4-4-4-4--|
E|---------------------------------------------------------------------|
PM ...................................................................

Chorus:    (w/distortion)
E|---------------------------------------------------------------------|
B|---------------------------------------------------------------------|
G|-6-6-6-6-6-6-6-6--9-9-9-9-9-9-9-9--4-4-4-4-4-4-4-4--6-6-6-6-6-6-6-6--|
D|-6-6-6-6-6-6-6-6--9-9-9-9-9-9-9-9--4-4-4-4-4-4-4-4--6-6-6-6-6-6-6-6--|
A|-4-4-4-4-4-4-4-4--7-7-7-7-7-7-7-7--2-2-2-2-2-2-2-2--4-4-4-4-4-4-4-4--|
E|-4-4-4-4-4-4-4-4-----------------------------------------------------|


If you have any questions, comments or corrections, please mail me


Important: The song above is NOT stored on the Chordie server. The original song is hosted at www.xguitar.com. Chordie works as a search engine and provides on-the-fly formatting. Chordie does not index songs against artists'/composers' will. To remove this song please click here.

This song is displayed as text-only. Transposing and tuning is only available for chordpro-songs.

Login - add to songbook

Rating click stars to rate

Layout
Accuracy

SHARE PAGE  




You need to log in to post comments