Yesterdays

Guns N'Roses

 DCG5
|--------------0h2--------------------0h2-------------------2--0-------3-------|

|--------3--------------3-------3-----------------------3-----------3----3---3-|
|-----2-----2--------2-------2-----2------------0-------0-------------0----0---|
|--0-----------------------4-----------------0----------2----------------------|
|---------------------------------------------------3--------------------------|
|------------------------------------------------------------------------------|
The song goes like this
2x Rhythm Figure A
enter lyrics
(play Rythm Figure A where you see D C G5)

 DCG
 Yesterday there was so many things I was never told
 DCG
 Now that I'm startin' to learn I feel I'm growin' old
 DCadd2G
 'Cause yesterday's got nothin' for me.  Old pictures that I'll always see
 DCG
 Time just fades the pages in my book of memories.

(Insert Verse 2)
 ACG
 Ooh,____________yesterday's________ got nothin' for me.__________
 ACG
 Yesterday's________woooh,__ __________got nothin' for me.__________

2nd verse:

 DCG
 Prayers in my pocket and no hand in destiny.
 DCG
 I'll just keep movin' along with no time to plant my feet.
 DCadd2
 'Cause yesterday's got nothin' for me.
 G
Old pictures that I'll always see.
 DCG
 Things could be better____if we'd all just let them be.

3rd verse:

 DCG
 Yesterday there were so many things I was never shown.
 DCG
 Suddenly this time I found I'm on the streets and I'm alone.
 DCG
 Yesterday's got nothin' for me. Old pictures that I'll always see.
 DCG
 I ain't got time to reminisce old novelties.

The song structure is basically:
2x Rythm Figure A
Verse 1
Verse 2
Chorus
Solo
Verse 3
Chorus
------------------------------------------------------------------------

Yesterdays (solo)
Guns N' Roses
Use your illusion II
Tabbed by: Stephen Iggulden
dwigg@interlog.com
Guitar solo:
|---------------------------------------------------------------------|

|------------------------------------12-------------------------------|
|-9fb-r9h-r9p7-9-7---7--------14fb~~----14-11-------------------------|
|------------------9---9----------------------14hbr-12-14-14hb-12~~~~-|
|---------------------------------------------------------------------|
|---------------------------------------------------------------------|
|-------------------------------------------------------------------------|
|---------12-14~~~-14-12fb~~~~-14-14hb---14--14-14-15fb~~~~-15-12---------|
|-14fb~~~---------------------------------------------------------13------|
|--------------------------------------------------------------------14~~-|
|-------------------------------------------------------------------------|
|-------------------------------------------------------------------------|
|--------12--------12--------------------------12-------15-------|
|----------12-15fb---15-12-------------------12---15/17----1715-|
|-12/13--------------------14-12h13----12h13---------------------|
|-----------------------------------14---------------------------|
|----------------------------------------------------------------|
|----------------------------------------------------------------|


Corrected by Riverdales. View original
A C Cadd2 D G G5
variations - click chord images
Transpose chords:
Tuning:
Cool service:
View: Size:
A  A  A
Rating:
Layout:
  • Currently 3/5 Stars.
  • 1
  • 2
  • 3
  • 4
  • 5
 
Accuracy:
  • Currently 2.9/5 Stars.
  • 1
  • 2
  • 3
  • 4
  • 5
 
click stars to rate
Chordie recommends:
Get acoustic guitar lessons and electric guitar lessons at JamPlay.com
Songbook:
Login to add this song to your songbook
Support the artist
Preview/buy this song
MSN Music
Why this non-profit ad?

 
login to add comments/video/corrections