Guitar Tabs, Chords and Lyrics


Abyss of Woe    Gwar



Band: GWAR
Song: Abyss of woe
Album: Violence has arrived
Raped by: Matt

This should be everything except for the solo which I wont bother to figure out. I’ve labeled the riffs so you should be able to put in the correct order or something by listening to the song.

.....= palm mute     *= pinch harmonic

Intro:
d|---------------------------------|
A|---------------------------------|
F|-5-5-5-6-6-6-5-5-5-5-5-5-5-5-5-5-|
C|---------------------------------|
G|---------------------------------|
D|---------------------------------|
     ....  ...   ..  ....  ....  ..

d|---------------------------------|
A|-6-6-6-7-7-7-6-6-4-4-4-6-6-6-6-6-|
F|-5-5-5-6-6-6-5-5-3-3-3-5-5-5-5-5-|
C|-3-3-3-4-4-4-3-3-1-1-1-3-3-3-3-3-|
G|---------------------------------|
D|---------------------------------|

d|-------------------------------------|
A|-6-6-6-7-7-7-6-6-6-4-4---------------|
F|-5-5-5-6-6-6-5-5-3-3-3-6-6-6-6-6-----|
C|-3-3-3-4-4-4-3-3-1-1-1-6-6-6-6-6-----|
G|-----------------------4-4-4-4-4-----|
D|-------------------------------------|

Verse:
d|---------------------------------|
A|-6-6-6-7-7-7-6-6-4-4-4-6-6-6-6-6-|
F|-5-5-5-6-6-6-5-5-3-3-3-5-5-5-5-5-|
C|-3-3-3-4-4-4-3-3-1-1-1-3-3-3-3-3-|
G|---------------------------------|
D|---------------------------------|
     ....  ...   ..  ....  ...   ..
d|-------------------------------------|
A|-6-6-6-7-7-7-6-6-6-4-4---------------|
F|-5-5-5-6-6-6-5-5-3-3-3-6-6-6-6-6-----|
C|-3-3-3-4-4-4-3-3-1-1-1-6-6-6-6-6-----|
G|-----------------------4-4-4-4-4-----|
D|-------------------------------------|
     ...   ....  ..  ...  .....  ..
pre-chorus:
d|--------------------------------------|
A|--------------------------------------|
F|-6-8-10-x-5-5-5-6p5-5-5-5-6p5-5-5-5-6-|
C|-6-8-10-x-----------------------------|
G|-4-6-8--x-----------------------------|
D|--------------------------------------|
              ....      ....      ...
chorus:
d|---------------------------------|
A|-6-6-6-7-7-7-6-6-4-4-4-6-6-6-6-6-|
F|-5-5-5-6-6-6-5-5-3-3-3-5-5-5-5-5-|
C|-3-3-3-4-4-4-3-3-1-1-1-3-3-3-3-3-|
G|---------------------------------|
D|---------------------------------|

d|-------------------------------------|
A|-6-6-6-7-7-7-6-6-6-4-4---------------|
F|-5-5-5-6-6-6-5-5-3-3-3-6-6-6-6-6-----|
C|-3-3-3-4-4-4-3-3-1-1-1-6-6-6-6-6-----|
G|-----------------------4-4-4-4-4-----|
D|-------------------------------------|

Solo riff:
d|-----------------------------|
A|-----------------------------|
F|-----------------------------|
C|-9-9-9-8-8-8-7-7-7-7-7-7-7-7-|
G|-9-9-9-8-8-8-7-7-7-7-7-7-7-7-|
D|-7-7-7-6-6-6-5-5-5-5-5-5-5-5-|

Bridge:
d|--------------------------------------------------------|
A|--------------------------------------------------------|
F|--------------------------------------------------------|
C|-4-6-8-----------------------4-6-8----------------------|
G|-4-6-8-----------------------4-6-8--------------6-4---4-|
D|-2-4-6--6-9-6-8-6--6-9-6-8-6-2-4-6--6-9-6-8-6--6----6---|
          . * . *    . * . *          . * . *    .
Outro:
d|-----------------------|
A|-6--7--6--4------------|
F|-5--6--5--3----6-8-10--|
C|-3--4--3--1----6-8-10--|
G|---------------4-6-8---|


Important: The song above is NOT stored on the Chordie server. The original song is hosted at www.xguitar.com. Chordie works as a search engine and provides on-the-fly formatting. Chordie does not index songs against artists'/composers' will. To remove this song please click here.

This song is displayed as text-only. Transposing and tuning is only available for chordpro-songs.

Login - add to songbook

Rating click stars to rate

Layout
Accuracy

SHARE PAGE  




You need to log in to post comments