Guitar Tabs, Chords and Lyrics


Jagermonsta    Gwar



Song: Jagermonsta
Album: We kill Everything

E-Flat

Intro II guitars but you can play it all on one guitar
 ------------------------------------------------------------
|--------------------------------------------------------5---|
|-------7----------5-4pO-------------7-------7-------7---3-5-|
|---7-7--7-----5---3-----4pO-----7-7--7--7-7--7--7-7--7----3-|
|---5--5--5--5-3-5-----------3---5--5--5-5--5--5-5--5--5-----|
 ------------3---3-------------------------------------------

JAGERMONSTA! 00:08 Play 2x's(2nd time play the (*) chord
 --------------------------------------------------------------
|---------------------------------------------------------------|
|-------7---------5---4pO-----------7-----------4pO-----5*------|
|---7-7--7----5---3------4pO----7-7--7----7---5----4pO--3*-5-7--|
|---5--5--5-5-3-5---5--------3--5--5--5-5-5-5-3-------3-5--3-5--|
 -----------3---3---3-------------------3---3-----------3------

00:24
 -----------------------------------------------------------------
|-----------------------------------------------------------------|
|-----------------------------------------------------------------|
|---7------------1O----------------7---------------------------7--|
|---5-5555555555--8-88888-1O-------5-55555555555--1O------5-1O-5--|
 --------------------------8-88888-----------------8-888--3--8----

00:55
Try -- To tame the fury of the JagerMontsa
Play 2x's
 ----------------------------------------------------
|---------------------------------------44-44-55-55--|
|---------------------------------------22-22-33-33--|
|---------------8-7---8-7----------------------------|
|---5-6-8-5-6-8-6-5-5-6-5-5-5-6-8-5-6-8--------------|
 ---3-4-6-3-4-6-----3-----3-3-4-6-3-4-6--------------

Cool part 1:12 Play this a few times
 ---------------------------------------------------------------------
|---------------------------------------------------------------------
|---------------------------------------------------------------------
|--------2pO--------2pO--------3pO--------3pO---------2pO--------2pO--
|---4-3pO----3-4-3pO----3-5-4pO----4-5-4pO----4--4-3pO----3-4-3pO----3
 ---2----------2----------3----------3-----------2----------2---------

 --------------------------
 --------------------------|
 --------------------------|
 ---7---------2pO----------|
 ---5-5pO-3pO-----3pO-3pO--|
 --------------------------

1:42
 ------------------------------
|------------------------------|
|------------------------------|
|---77---------2pO-----2pO-----|
|---55-5pO-3pO-----3pO-----3pO-|
 ------------------------------

The you play some of the riffs above through the solo until
These are just the chord progress at 2:20 for Balsac....
I am getting sick of typing
 ------------------------
|------------------------|
|------------------------|
|---7----9----1O----12---|
|---5----7-----8----1O---|


Important: The song above is NOT stored on the Chordie server. The original song is hosted at www.xguitar.com. Chordie works as a search engine and provides on-the-fly formatting. Chordie does not index songs against artists'/composers' will. To remove this song please click here.

This song is displayed as text-only. Transposing and tuning is only available for chordpro-songs.

Login - add to songbook

Rating click stars to rate

Layout
Accuracy

SHARE PAGE  




You need to log in to post comments