Guitar Tabs, Chords and Lyrics


Perseverance    Hatebreed



Hatebreed- Perseverance
Tabbed by Ears

.  - palm mute           /  - slide up to
\  - slide down to       ~  - vibrato
h  - hammer on           b  - Bend
p  - pull off            Suffixes for bend
t  - tap                 f  - full bend    h - half bend
ph - pinched harmonic    q  - quarter bend t - tap bend
*  - see comment         ^  - Hold bend    r release bend
x  - Stuccatto           ~  - vibrato bend
,  - slight palm mute    () - ghost note, sustained note
"  - tremolo note         - Trill

	Alright I was kinda stoned when I did this so...

|-------------------------------------------------------------------|
|-------------------------------------------------------------------|
|-------------------------------------------------------------------|
|------------0-4-5--------------------------------------------------|
|--3-2-2-2---0-2-3--5-----------------------------------------------|
|--1-0-0-0----------3-----------------------------------------------|
     . . .
 "I know your" (verse)
|-------------------------------------------------------------------|
|-------------------------------------------------------------------|
|-------------------------------------------------------------------|
|-------------------------------------------------------------------|
|-------------6\5--2-3-2--5\4--2-3-2--------------------------------|
|-------------4\3--0-1-0--3\2--0-1-0--------------------------------|

 Chorus(my fav. part)
|-------------------------------------------------------------------|
|-------------------------------------------------------------------|
|------use alternate picking I think-sounds good either way---------|
|--------------------0-4-5------------------------------------------|
|---3-22--x7----then-0-2-3------------------------------------------|
|---1-00------------------------------------------------------------|
      ..
 Those are the main riffs of the song there, when you enter the the chorus for the second time
you just hold the lowest chord open....you guys can figure out the little changes...hope


Important: The song above is NOT stored on the Chordie server. The original song is hosted at www.xguitar.com. Chordie works as a search engine and provides on-the-fly formatting. Chordie does not index songs against artists/composers will. To remove this song please click here.

This song is displayed as text-only. Transposing and tuning is only available for chordpro-songs.

Login - add to songbook

Rating click stars to rate

Layout
Accuracy

SHARE PAGE  




You need to log in to post comments