Guitar Tabs, Chords and Lyrics


Smash Your Enemies    Hatebreed



Hatebreed - Smash Your Enemies
Submitted By: ryan fogg
EMail: rafogg@samford.edu
Tabbed By Ryan F
Tuning: C G C F A D drop D, whole step down bla bla bla

-----------------------|------------------------------------------------------
-----------------------|------------------------------------------------------
-----------------------|------------------------------------------------------
-----------------------|------------------------------------------------------
-----------------------|----------------5-6-5--3-4-3--------------------------
-0-0-0-1p0-0-0-0-0-6p0-|-0-0-0-1p0-0-0--5-6-5--3-4-3--------------------------
 ^ 1st guitar w/ 2nd guitar on feedback

-----------------------|------------------------------------------------------
-----------------------|------------------------------------------------------
-----------------------|------------------------------------------------------
-----------------------|------------------------------------------------------
-----------------------|----------------5-6-5--3-4-3--------------------------
-0-0-0-1p0-0-0-0-0-6p0-|-0-0-0-1p0-0-0--5-6-5--3-4-3--------------------------
 ^ 1st guitar plays it again while 2nd guitar hits an open note at beggining

------------------------------------------------------------------------------
------------------------------------------------------------------------------
------------------------------------------------------------------------------
------------------------------------------------------------------------------
------------------------x-xx-----------------5-6-5--3-4-3---------------------
-0-0-0-1p0-0-0-0-0-6p0--x-xx--0-0-0-1p0-0-0--5-6-5--3-4-3---------------------
 ^ both guitars                               (x4) end with a big open note

----------------------------------|-------------------------------------------
----------------------------------|-------------------------------------------
----------------------------------|-------------------------------------------
------------------3-3-3-----------|----3-3-3----------------------------------
------------------1-1-1--3-3-3----|----1-1-1--3-3-3--6------------------------
-6p0-0-0-0-0-0-0---------3-3-3----|-----------3-3-3--6------------------------
                               (x11)                 (x4) hold out last note

------------------------------------------------------------------------------
------------------------------------------------------------------------------
------------------------------------------------------------------------------
------------------------------------------------------------------------------
-1-0-1-0---3-4-3-4------------------------------------------------------------
-1-0-1-0---3-4-3-4------------------------------------------------------------


Important: The song above is NOT stored on the Chordie server. The original song is hosted at www.xguitar.com. Chordie works as a search engine and provides on-the-fly formatting. Chordie does not index songs against artists'/composers' will. To remove this song please click here.

This song is displayed as text-only. Transposing and tuning is only available for chordpro-songs.

Login - add to songbook

Rating click stars to rate

Layout
Accuracy

SHARE PAGE  




You need to log in to post comments