Guitar Tabs, Chords and Lyrics


Unloved    Hatebreed



HATEBREED - Unloved

Tune to Dropped C

Intro "When it all ended..."
|-----------------------------------------------------------------|
|-----------------------------------------------------------------|
|-----------------------------------------------------------------|
|-----------------------------------------------------------------|
|-1-2-1-0-0-0-0-0-0-0-0-0-0-0-0-0-1-2-1-0000000000000000000000000-|
|-1-2-1-0-0-0-0-0-0-0-0-0-0-0-0-0-1-2-1-0000000000000000000000000-|
        . . . . . . . . . . . . .       .........................

Verse "Emerge from a doorway..."
|---------------------------------------------------------|
|---------------------------------------------------------|
|---------------------------------------------------------|
|---------------------------------------------------------|
|-0-0--0-3-0--0-6-3--3-3-3--3-0-0--0-3-0--0-6--5--3-9---9-|
|-0-0--0-3-0--0-6-3--3-3-3--3-0-0--0-3-0--0-6--5--3-9---9-|

Chorus "You don't know..."                                 Last repeat, second time it's played
|----------------------------|----------------------------|--------------------------|
|----------------------------|----------------------------|--------------------------|
|----------------------------|----------------------------|--------------------------|
|----------------------------|----------------------------|--------------------------|
|-3-6---1-1--1-0-0--0-0-0--0-|-3-6---1-1--1-0-0--0-3-3--3-|-3-6---1-1--1-0---0---0---|
|-3-6---1-1--1-0-0--0-0-0--0-|-3-6---1-1--1-0-0--0-3-3--3-|-3-6---1-1--1-0---0---0---|

Breakdown "You were never part of my life..."
|-----------------------------------------------------------------|
|-----------------------------------------------------------------|
|-----------------------------------------------------------------|
|-----------------------------------------------------------------|
|-0-0-0-3-3-1-1-3-0---0-0-0-6---0-0-0-0-3-3-1-1-3-0-0-0-0-0-6---0-|
|-0-0-0-3-3-1-1-3-0---0-0-0-6---0-0-0-0-3-3-1-1-3-0-0-0-0-0-6---0-|
  . . .           .   . . .     . . . .           . . . . .     .



Important: The song above is NOT stored on the Chordie server. The original song is hosted at www.xguitar.com. Chordie works as a search engine and provides on-the-fly formatting. Chordie does not index songs against artists'/composers' will. To remove this song please click here.

This song is displayed as text-only. Transposing and tuning is only available for chordpro-songs.

Login - add to songbook

Rating click stars to rate

Layout
Accuracy

SHARE PAGE  




You need to log in to post comments