Guitar Tabs, Chords and Lyrics


Doomsayer    Hatebreed



Hatebreed
Rise of Brutality
Doomsayer



Notation:
  .  - palm mute                ~  - vibrato
  \  - slide down               b  - bend
  /  - slide up                    f  - full
  h  - hammer on                   h  - half
  p  - pull off                    r  - release
   - artificial harmonic      () - let ring


  Tuning Down 2 Whole Steps (C,F,Bb,Eb,G,C)



    RIFF A         "Your doom awaits you . . ."
  |-----------------------------------------------------------------|
  |-----------------------------------------------------------------|
  |-----------------------------------------------------------------|
  |-----------------------------------------------------------------|
  |--------------11-8-11-12----------------10-7-10-11---------------|
  |-0-0-0-0-0-0---------------0-0-0-0-0-0---------------------------|
    . . . . . .               . . . . . .

    RIFF B          "Defeated . . ."
  |-----------------------------------------------------------------|
  |-----------------------------------------------------------------|
  |-----------------------------------------------------------------|
  |-----------------------------------6--5--3-----------------------|
  |-------------2----------------5----4--3--1-----------------------|
  |-0-0-0-0-0-0-0----0-0-0-0-0-0-3--0-------------------------------|
    . . . . . .      . . . . . .    .

    RIFF C
  |-----------------------------------------------------------------|
  |-----------------------------------------------------------------|
  |-----------------------------------------------------------------|
  |-----------------------------------------------------------------|
  |-------------2---------------------------------------------------|
  |-0-0-0-0-0-0-0----0-0-0-0-0-0-0-0-0-0----------------------------|
    . . . . . .      . . . . . . . . . .

    RIFF D          "You will respect . . ."
  |-----------------------------------------------------------------|
  |-----------------------------------------------------------------|
  |-----------------------------------------------------------------|
  |-----------------------------------------------------------------|
  |-------------------5----------------8----------------7--10-------|
  |------3-3-3-3-3-3--3—--6-6-6-6-6-6--6---5-5-5-5-5-5--5--8--------|
         . . . . . .      . . . . . .      . . . . . .

    RIFF E
  |-----------------------------------------------------------------|
  |-----------------------------------------------------------------|
  |-----------------------------------------------------------------|
  |----------------------------------------------(2)----------------|
  |-2-2-2--5-2-5--2-2-2-2-2--5-2-5-5-------------(2)----------------|
  |-0-0-0--3-0-3--0-0-0-0-0--3-0-3-3-------------(0)----------------|
    . . .    .    . . . . .    .

    RIFF F
  |-----------------------------------------------------------------|
  |-----------------------------------------------------------------|
  |-----------------------------------------------------------------|
  |----------------------X3--------------------2--------------------|
  |-2-2--2-2------------------2-2-3-6-5--------2--------------------|
  |-0-0--0-0—0-0-0-0-0-0------0-0-1-4-3--------0--------------------|


Important: The song above is NOT stored on the Chordie server. The original song is hosted at www.xguitar.com. Chordie works as a search engine and provides on-the-fly formatting. Chordie does not index songs against artists'/composers' will. To remove this song please click here.

This song is displayed as text-only. Transposing and tuning is only available for chordpro-songs.

Login - add to songbook

Rating click stars to rate

Layout
Accuracy

SHARE PAGE  




You need to log in to post comments