Guitar Tabs, Chords and Lyrics


Voice of Contention    Hatebreed



HATEBREED - Voice of Contention
Tabbed by Jason

Tune to Dropped C

Verse "If the said..."
|--------------------------------------------------------------|
|--------------------------------------------------------------|
|--------------------------------------------------------------|
|--------------------------------------------------------------|
|-0---1---0-----0-----4---3-----1-0---1---0-----0-----4-----3--|
|-0-0-1-0-0-0-0-0-0-0-4-0-3-0-0-1-0-0-1-0-0-0-0-0-0-0-4-0-0-3--|

Chorus "Whoever said I needed you lied..."
|-----------------------------------|---------------------------------------|
|-----------------------------------|---------------------------------------|
|-----------------------------------|---------------------------------------|
|-----7/8-7-------13-----13-----10--|-----7/8-7-------13-13-13-13-13-12-10--|
|-----5/6-5-------11-----11-----8---|-----5/6-5-------11-11-11-11-11-10-8---|
|-0-0-------0-0-0----0-0----0-0-----|-0-0-------0-0-0-----------------------|

Breakdown "Hear my voice of contention..."
|----------------------------------------|
|----------------------------------------|
|----------------------------------------|
|------------------------------------8/7-|
|-1-1-1-1-1-1-1-1-0----8-7---8-7-----6/5-|


Important: The song above is NOT stored on the Chordie server. The original song is hosted at www.xguitar.com. Chordie works as a search engine and provides on-the-fly formatting. Chordie does not index songs against artists'/composers' will. To remove this song please click here.

This song is displayed as text-only. Transposing and tuning is only available for chordpro-songs.

Login - add to songbook

Rating click stars to rate

Layout
Accuracy

SHARE PAGE  




You need to log in to post comments