Guitar Tabs, Chords and Lyrics


Before Dishonor    Hatebreed



hatebreed
before dishonor
dropped d

Riff 1
4|-------------------|
5|-------------------|
6|-0-0-1-3-0h4-3-1-3-|
   * * * *   * * * *

Fill 1 (let Ring)
1|-0-----------------------|
2|-0-----------------------|
3|-1-----------------------|
4|-2-----------------------|
5|-2-----------------------|
6|-0-----------------------|

Riff 2a: Both Guitars
4|-2--2-2-2-2--5--7--8-|-2--2-2-2-2--5--8--7-|
5|-2--2-2-2-2--5--7--8-|-2--2-2-2-2--5--8--7-|
6|-0--0-0-0-0--3--5--6-|-0--0-0-0-0--3--6--5-|
   *  * * * *            *  * * * *

Riff 2b: Guitar 2 (guitar 1 plays Riff 2a under this)
1|---------------------|---------------------|
2|---------------------|---------------------|
3|-4--4-4-4-4--7--8-10-|-4--4-4-4-4--7-10--9-|
4|-2--2-2-2-2--5--7--8-|-2--2-2-2-2--5--8--7-|
5|---------------------|---------------------|
6|---------------------|---------------------|

Riff 3
4|------------------------------------------|
5|-2-2-3-2-3-2--2-3--2-3--------------------|
6|-0-0-1-0-1-0--0-1--0-1--0-0-1-3-0h4-3-1-3-|
   * * * * * *  *    *    * * * *   * * * *

Riff 4 (let each chord ring)
1|-------------------|
2|-------------------|
3|-------------5-----|
4|-2-----5-----5-----|
5|-2-----5-----3-----|
6|-0-----3-----------|

Riff 5
4|--------5/7-\5\2--|
5|-2-22-2-3/5-\3\0--|
6|-0-00-0-----------|
   * ** *

Riff 7
4|------------------|
5|------------------|
6|-0000113344331133-|
   ****************

Riff 8
4|---------------------|
5|-2-2-3-5---6-5-3-5-2-|
6|-0-0-1-3-0h4-3-1-3-0-|
   * * * *   * * * * *


Order of song
Riff 1 x2
Fill 1 x1
Riff 2a x2
Riff 2a & 2b x2
Riff 3 x4
Riff 4 x2
Riff 5 x8
Riff 2a x2
Riff 2a & 2b x2
Riff 3 x4
Fill 1 x2
Riff 1 x12
Riff 7 x7


Important: The song above is NOT stored on the Chordie server. The original song is hosted at www.xguitar.com. Chordie works as a search engine and provides on-the-fly formatting. Chordie does not index songs against artists'/composers' will. To remove this song please click here.

This song is displayed as text-only. Transposing and tuning is only available for chordpro-songs.

Login - add to songbook

Rating click stars to rate

Layout
Accuracy

SHARE PAGE  




You need to log in to post comments