Guitar Tabs, Chords and Lyrics


Burn the Lies    Hatebreed



hatebreed
burn the lies

this is my favorite song by hatebreed and i'm pretty sure this tab is 95% correct
contact:mudvayne709@yahoo.com


 They're so persuasive.......
1|-----------------|-----------------|
2|-----------------|-----------------|
3|-----------------|-----------------|
4|-----------------|-----------------|
5|-3-2---2-5/6---6-|-7-6-----3/5---5-|
6|-1-0---0-3/4---4-|-5-4---0-1/3---3-|

1|------------------|------------------|------------------|-----------------|
2|------------------|------------------|------------------|-----------------|
3|------------------|------------------|------------------|-----------------|
4|------------------|------------------|------------------|-----------------|
5|---3---3/8--7--5--|---3---3/8--7--5--|---3---3/8--7--5--|-2-------2-------|
6|-1-1---1/6--5--3--|-1-1---1/6--5--3--|-1-1---1/6--5--3--|-0-------0-------|

                  3x                                    3x
1|-----------------|------------------|-----------------|------------------|
2|*---------------*|------------------|*---------------*|------------------|
3|-----------------|------------------|-----------------|------------------|
4|-----------------|------------------|-----------------|------------------|
5|*2-2-2---3-2-2--*|-2-2-2---5--4--3--|*2-2-2---3-2-2--*|-2-2-2---5--7--8--|
6|-0-0-0---1-0-0---|-0-0-0---3--2--1--|-0-0-0---1-0-0---|-0-0-0---3--5--6--|

 I'm filled with hate......                                                     end
1|-----------------|------------------|-----------------|------------------|--------|
2|-------3x--------|------------------|-----------------|------------------|--------|
3|-----------------|------------------|--------3x-------|------------------|--------|
4|-----------------|------------------|-----------------|------------------|--------|
5|---------3-2-2---|---------5--4--3--|---------3-2-2---|---------5--7--8--|-----2--|
6|-00000---1-0-0---|-00000---3--2--1--|-00000---1-0-0---|-00000---3--5--6--|-00000--|
p.m.....             .....              .....             .....              ....


Important: The song above is NOT stored on the Chordie server. The original song is hosted at www.xguitar.com. Chordie works as a search engine and provides on-the-fly formatting. Chordie does not index songs against artists'/composers' will. To remove this song please click here.

This song is displayed as text-only. Transposing and tuning is only available for chordpro-songs.

Login - add to songbook

Rating click stars to rate

Layout
Accuracy

SHARE PAGE  




You need to log in to post comments