Chordie logo


Ohio Is for Lovers    Hawthorne Heights



Hawthorne Heights - Ohio Is For Lovers
Tabbed By: Manic
Email: ManictheMechainc@yahoo.com

Tuning: Standard (E A D G B E)



Guitar 1
. Palm Mute


E|--------------------------------------------------------------||
B|--------------------------------------------------------------||
G|--------------------------------------------------------------||
D|---------4-----4---------4-----4----------4-----4---------4---||
A|---2---2-----2-----2---2-----2------2---2-----2-----2---2-----||
E|-4---4-----2-----4---4-----2------0---0-----2-----0---0-------||

E|--------------------------------------------------------------||
B|--------------------------------------------------------------||
G|--------------------------------------------------------------||
D|------6-6-6-6-8-8-8-8-10-10-10-10-10--------------------------||
A|-4-4--4-4-4-4-6-6-6-6-8--8--8--8--8---------------------------||
E|-2-2----------------------------------------------------------||

E|--------------------------------------------------------------||
B|--------------------------------------------------------------||
G|--------------------------------------------------------------||
D|--------------------------------------------------------------||
A|-222-222-222-4-4----------------------------------------------||
E|-000-000-000-2-2----------------------------------------------||

E|--------------------------------------------------------------||
B|--------------------------------------------------------------||
G|--------------------------------------------------------------||
D|------6-6-6-6-8-8-8-8-10-10-10-10-10--------------------------||
A|-4-4--4-4-4-4-6-6-6-6-8--8--8--8--8---------------------------||
E|-2-2----------------------------------------------------------||

E|--------------------------------------------------------------||
B|--------------------------------------------------------------||
G|--------------------------------------------------------------||
D|--------------------------------------------------------------||
A|-222-222-222-4------------------------------------------------||
E|-000-000-000-2------------------------------------------------||

E|--------------------------------------------------------------||
B|--------------------------------------------------------------||
G|--------------------------------------------------------------||
D|--------------------------------------------------------------||
A|-6666-6666-4-2222-2222-2222-44--------------------------------||
E|-4444-4444-2-0000-0000-0000-22--------------------------------||
               ...  ...  ...
E|--------------------------------------------------------------||
B|--------------------------------------------------------------||
G|--------------------------------------------------------------||
D|--------------------------------------------------------------||
A|-6666-6666-4-2222-2222-2222-4---------------------------------||
E|-4444-4444-2-0000-0000-0000-2---------------------------------||

E|--------------------------------------------------------------||
B|--------------------------------------------------------------||
G|--------------------------------------------------------------||
D|--------------------------------------------------------------||
A|-2-22-4-44-66-66-44-66-66-44-22-22-44-22-22-44----------------||
E|-0-00-2-22-44-44-22-44-44-22-00-00-22-00-00-22----------------||
     ..   ..
E|---------------------------------------------------------------------------------||
B|---------------------------------------------------------------------------------||
G|---------------------------------------------------------------------------------||
D|---------------------------------------------------------------------------------||
A|-6666-6666-6666-4444-6666-6666-6666-4444-2222-2222-2222-4444-2222-2222-2222-4444-||
E|-4444-4444-4444-2222-4444-4444-4444-2222-0000-0000-0000-2222-0000-0000-0000-2222-||
   .... .... .... .... .... .... .... .... .... .... .... .... .... .... .... ....
E|--------------------------------------------------------------||
B|--------------------------------------------------------------||
G|--------------------------------------------------------------||
D|------6-6-6-6-8-8-8-8-10-10-10-10-10--------------------------||
A|-4-4--4-4-4-4-6-6-6-6-8--8--8--8--8---------------------------||
E|-2-2----------------------------------------------------------||

E|--------------------------------------------------------------||
B|--------------------------------------------------------------||
G|--------------------------------------------------------------||
D|--------------------------------------------------------------||
A|-222-222-222-4-4----------------------------------------------||
E|-000-000-000-2-2----------------------------------------------||

E|--------------------------------------------------------------||
B|--------------------------------------------------------------||
G|--------------------------------------------------------------||
D|--------------------------------------------------------------||
A|-6666-6666-4-2222-2222-2222-44--------------------------------||
E|-4444-4444-2-0000-0000-0000-22--------------------------------||
               ...  ...  ...
E|--------------------------------------------------------------||
B|--------------------------------------------------------------||
G|--------------------------------------------------------------||
D|------6-6-6-6-8-8-8-8-10-10-10-10-10--------------------------||
A|-4-4--4-4-4-4-6-6-6-6-8--8--8--8--8---------------------------||
E|-2-2----------------------------------------------------------||

E|--------------------------------------------------------------||
B|--------------------------------------------------------------||
G|--------------------------------------------------------------||
D|--------------------------------------------------------------||
A|-6666-6666-4-2222-2222-2222-4---------------------------------||
E|-4444-4444-2-0000-0000-0000-2---------------------------------||

E|--------------------------------------------------------------||
B|--------------------------------------------------------------||
G|--------------------------------------------------------------||
D|--------------------------------------------------------------||
A|-6666-6666-4-2222-2222-2222-44--------------------------------||
E|-4444-4444-2-0000-0000-0000-22--------------------------------||
               ...  ...  ...
E|--------------------------------------------------------------||
B|--------------------------------------------------------------||
G|--------------------------------------------------------------||
D|--------------------------------------------------------------||
A|-2-22-4-44-66-66-44-66-66-44-22-22-44-22-22-44----------------||
E|-0-00-2-22-44-44-22-44-44-22-00-00-22-00-00-22----------------||
     ..   ..
E|--------------------------------------------------------------||
B|--------------------------------------------------------------||
G|--------------------------------------------------------------||
D|--------------------------------------------------------------||
A|-66-66-44-66-66-44-22-22-44-22-22-44--------------------------||
E|-44-44-22-44-44-22-00-00-22-00-00-22--------------------------||

E|--------------------------------------------------------------||
B|--------------------------------------------------------------||
G|--------------------------------------------------------------||
D|---4-----4-----4-----4----------------------------------------||
A|--------------------------------------------------------------||
E|-4---2-4---2-0---2-0------------------------------------------||

E|--------------------------------------------------------------||
B|--------------------------------------------------------------||
G|--------------------------------------------------------------||
D|------6-6-6-6-8-8-8-8-10-10-10-10-10--------------------------||
A|-4-4--4-4-4-4-6-6-6-6-8--8--8--8--8---------------------------||
E|-2-2----------------------------------------------------------||

E|--------------------------------------------------------------||
B|--------------------------------------------------------------||
G|--------------------------------------------------------------||
D|--------------------------------------------------------------||
A|-6666-6666-4-2222-2222-2222-4---------------------------------||
E|-4444-4444-2-0000-0000-0000-2---------------------------------||

E|--------------------------------------------------------------||
B|--------------------------------------------------------------||
G|--------------------------------------------------------------||
D|--------------------------------------------------------------||
A|-6666-6666-4-2222-2222-2222-44--------------------------------||
E|-4444-4444-2-0000-0000-0000-22--------------------------------||
               ...  ...  ...
E|--------------------------------------------------------------||
B|--------------------------------------------------------------||
G|--------------------------------------------------------------||
D|--------------------------------------------------------------||
A|-2-22-4-44-66-66-44-66-66-44-22-22-44-22-22-44----------------||
E|-0-00-2-22-44-44-22-44-44-22-00-00-22-00-00-22----------------||
     ..   ..
E|--------------------------------------------------------------||
B|--------------------------------------------------------------||
G|--------------------------------------------------------------||
D|--------------------------------------------------------------||
A|-66-66-44-66-66-44-22-22-44-22-22-44--------------------------||
E|-44-44-22-44-44-22-00-00-22-00-00-22--------------------------||

Thnx 4 checkin' out my tab rate it once you've read it. I'm about 90%
sure thats how guitar 1 plays his parts. Hope u enjoyed it or at least


Important: The song above is NOT stored on the Chordie server. The original song is hosted at www.xguitar.com. Chordie works as a search engine and provides on-the-fly formatting. Chordie does not index songs against artists/composers will. To remove this song please click here.

This song is displayed as text-only. Transposing and tuning is only available for chordpro-songs.

Login - add to songbook

Rating click stars to rate

Layout
Accuracy

SHARE PAGE  




You need to log in to post comments