Guitar Tabs, Chords and Lyrics


Raised on You    Heart



This is called "Raised on you" by Heart. It's only the electric guitar part though I hear some acoustic in the background. I left out one lead part in the middle because I ran out of patience with it so I stopped trying to figure it out. :p I'll add it later. I hope this is good enough for now. Not many heart tabs out there, gotta do with what we got even if it's ****.

The intro, verse 1, and part of verse 2 has no guitar.

After "...choose..." Fig. 1
------------------------------------------------------------------
------------------------------------------------------------------
------------------------------------------------------------------
-12s-12s-10s-8s-8s-8-8-10-12s-12s-10s-8---------------------------
-12s-12s-10s-8s-8s-8-8-10-12s-12s-10s-8---------------------------
-10s-10s--8s-6s-6s-6-6--8-10s-10s--8s-6---------------------------

Chorus Fig 2. (5xs)
-----------------------------------------------
-----------------------------------------------
---------------3-------------------------------
-8s-7s-6s-5--5---5-3-5-2-----------------------
-8s-7s-6s-5------------------------------------
-6s-5s-4s-3------------------------------------

Lead 1: (over fig. 1)
----------------------------------------------------------------------------------
----------------------------------------------------------------------------------
------------------------------------------------------------------------5----5-7--
-6-5-3-5h6p5s3-5h6p5s3-5h6p5s3-5p3---3-5-3-----3---3h5p3---3------3-5-7---7-------
-----------------------------------5-------3h5---5-------5---5-3------------------
----------------------------------------------------------------6-----------------

---------5-5-----------------------------------------------------
-6---6s8-----8p6---8-6---6---------------------------------------
---7-------------7-----7---7-5-3---3h5p3-------------------------
---------------------------------5-3h5p3-------------------------
-----------------------------------------------------------------
-----------------------------------------------------------------


After "likely be laughing..."
-------------------------------------------
-s8-8b-8b-8-6------------------------------
-------------------------------------------
-------------------------------------------
-------------------------------------------
-------------------------------------------
(Fig 1.)

After "down the road..."
--------------------------------------------------------------
------------------------------------------------13-15-15b-----
-10-9-7-9h10p9s7-9p7-10b-10-7-12b-12-10----12b----------------
----------------------------------------12--------------------
--------------------------------------------------------------
--------------------------------------------------------------

(This is the part that I haven't figured out yet. Where Nancy's singing I been raised, raised, raised etc. That little lead.)

After "Woah..."
----------------------------------------
----------------------------------------
-12b-12-10-12b-12b-10h12p10-------------
----------------------------------------
----------------------------------------
----------------------------------------


"Ohhh..."
-13-12-10-13----10----10----------------
-------------11----13----10vvv----------
----------------------------------------
----------------------------------------
----------------------------------------
----------------------------------------

"..been raised..."
-16p15p13-15p13----13-------------------
----------------15----13----------------
-------------------------15-------------
----------------------------------------
----------------------------------------
----------------------------------------

Suggestions? Comments? Ok then!



Important: The song above is NOT stored on the Chordie server. The original song is hosted at www.xguitar.com. Chordie works as a search engine and provides on-the-fly formatting. Chordie does not index songs against artists'/composers' will. To remove this song please click here.

This song is displayed as text-only. Transposing and tuning is only available for chordpro-songs.

Login - add to songbook

Rating click stars to rate

Layout
Accuracy

SHARE PAGE  




You need to log in to post comments