Crazy on You

Heart

E-------------------------|

B----------3--1p0---------|
G---2-/-4-----2p0--0------|
D-------------------------|
A-------------------------|
E-------------------------|
E--------------------------------------------------------------------|
B---------3p1p0----1-------------------------------------------------|
G---------------2-----2--------------0----------4-------5-\-0--------|
D-----------------------------2-/-4-------------4-------5-\-0--------|
A---0--0-----------0-----0--------------0---0-------0----------------|
E--------------------------------------------------------------------|
E--------------------------------------------------------------------|
B---------3p1p0----1-------------------------------------------------|
G---------------2-----2--------------0---------------2---------------|
D-----------------------------2-/-4--------0------2------------------|
A---0--0-----------0-----0--------------0------3--------2------------|
E-----------------------------------------------------------0--------|
E---------------------------------------------|
B---------------------------------------------|
G---/4-------2-------0h1--------4p2p0---------|
D-------------------------------0-------------|
A---/5-------4-------2----------X-------------|
E--------0-------0---------0----3-------------|
E--------------------------------------------------------------------|
B---------3p1p0----1-------------------------------------------------|
G---------------2-----2--------------0----------4-------5-\-0--------|
D-----------------------------2-/-4-------------4-------5-\-0--------|
A---0--0-----------0-----0--------------0---0-------0----------------|
E--------------------------------------------------------------------|
E----------------------------------------------------------------------|
B---------3p1p0----1---------------------------------------3-----------|
G---------------2-----2--------------0----------4------------------4---|
D-----------------------------2-/-4-------------4---4------------------|
A---0--0-----------0-----0--------------0---0-----------0------0-------|
E----------------------------------------------------------------------|
E------------5-------------------|
B---5p3------------0---<12>------|
G--------4---------0---<12>------|
D------------------0---<12>------|
A---0--------0-------------------|
E--------------------------------|
E--------------------------------------------------------------------|
B---------3p1p0----1-------------------------------------------------|
G---------------2-----2--------------0----------4-------5-\-0--------|
D-----------------------------2-/-4-------------4-------5-\-0--------|
A---0--0-----------0-----0--------------0---0-------0----------------|
E--------------------------------------------------------------------|
E-------------------------------------------------------------------|
B---------3p1p0----1------------------------------------------------|
G---------------2-----2--------------0------------------------------|
D-----------------------------2-/-4---------0--------4--------2-----|
A---0--0-----------0-----0--------------0-------0h5------0h3--------|
E-------------------------------------------------------------------|
E--------------------------------------0----------------------|
B---------3p1p0----1----------------------3--1--0-------------|
G---------------2-----2-----0-------0--------------2--0-------|
D-----------------------------------------------------0-------|
A---0--0-----------0-----0------------------------------------|
E--------------------------------3----------------------------|
E-------------------------------------------------0-----------------|
B-----------3p1p0-----1-----------------------0-------0-------------|
G---2-------------2-------2---------0h1---1-------1-------1---------|
D---0---------------------0-------------------0-------0-------------|
A-----------------------------------------2---------------2---------|
E---2---2-------------2-------2-------0-----------------------------|
E-------------------------------------------------------|
B---6------5h6p5p3-0------5--3--------------------------|
G----------------------5--------5---4-------------------|
D---0-----------------------------------6---------------|
A-------------------------------------------------------|
E-------------------------------------------0-----------|
E------------------------------------------------------------|
B------------------------------------------------------------|
G------------------------------------------------------------|
D-----2-0-------------------------2-0------------------------|
A-0-------3-2-0-----------------0-----3-2-0------------------|
E---------------1---------3---------------1-----------3------|
E------------------------------------------------------------|
B------------------------------------------------------------|
G------------------------------------------------------------|
D-----2-0-----------2-0-----------2-0------------------------|
A-0-------3-2-0---------3-2-0---------3-2---0----------------|
E---------------3-------------1-----------3------------------|

 AmFAmF
(MAIN RIFF over these)
 AmGF
VERSE 1:
 AmC
We may still have time, we might still get by
 Dm7E7
Every time I think about it I want to cry
 AmC
With bombs and the devils and the kids keep coming
 Dm7E7AmAmDAmAmD
Nowhere to breathe easy no time to be young                
 FGCF
But I tell myself that I'm doing all right
 Dm7E7
There's nothing left to do tonight

CHORUS:
(MAIN RIFF over these)
 AmF
But go crazy on you
 AmF
 Crazy on you
 AmGF
Let me go crazy crazy on you         

VERSE 2:
 AmC
My love is the evening breeze touching your skin
 Dm7E7
The gentle sweet singing of leaves in the wind
 AmC
The whisper that calls after you in the night
 Dm7E7AmAmDAmAmD
And kisses your ear in the early light                     
 FGCF
And you don't need to wonder you're doing fine
 Dm7E7
 And my love the pleasure's mine

VERSE 3:
 F#m7Bm7
 Wild man's world is crying in pain
 C#m7D
 What're you going to do - everbody's insane
 C#m7D
 So afraid of one who's so afraid of you
 C#m7D
What're you going to do?  
 EE/F#E/G#E/A
VERSE 4:
 AmC
 I was a willow last night in my dream
 Dm7E7
bent down over a clear running stream
 AmC
sang you a song that I heard up above
 Dm7E7
And you kept me alive with your sweet flowing love

PRESOLO:
(Main Riff over these)
 AmGFAm
SOLO:
(Add LEAD over next two lines of chords)
 EE/F#E/G#E/A
LEAD
E------------------------------------------------------------|
B------------------------------------------------------------|
G---------------------------------------------4--------------|
D-------------2---------------------------4-6---7------------|
A---------2-4---5-----------------4---5-7--------------------|
E-2---4-5----------------------------------------------------|
E---------------------------------------------7--------------|
B-----------------------------------------7-9---10-----------|
G---------6-7-9-7-----------------6---7-9--------------------|
D-6---7-9----------------------------------------------------|
A------------------------------------------------------------|
E------------------------------------------------------------|
E-------10----------------10----------------|
B-10/12----12\10----10/12----12\10----------|
G-------------------------------------------|
D-------------------------------------------|
A-------------------------------------------|
E-------------------------------------------|


ORDER:
INTRO
PREVERSE
VERSE 1
CHORUS
VERSE 2
CHORUS
VERSE 3
CHORUS
VERSE 4
CHORUS
CHORUS
PRESOLO
SOLO
CHORUS


Am Bm7 C C#m7 D Dm7 E E/F# E/G# E7 F F#m7 G
variations - click chord images
Transpose chords:
Tuning:
Cool service:
View: Size:
A  A  A
Rating:
Layout:
  • Currently 3/5 Stars.
  • 1
  • 2
  • 3
  • 4
  • 5
 
Accuracy:
  • Currently 2/5 Stars.
  • 1
  • 2
  • 3
  • 4
  • 5
 
click stars to rate
Chordie recommends:
Learn to play guitar with video-based, online guitar lessons at JamPlay.com
Songbook:
Login to add this song to your songbook
Support the artist
Preview/buy this song
MSN Music
Why this non-profit ad?

 
login to add comments/video/corrections