Guitar Tabs, Chords and Lyrics


Magic Man   Heart

-------------------------------------------------------------------------------------



-------------------------------------------------------------------------------------

---------------------------3---------------------------------------
---------------------------3---------------------------------------
---------------------------0---------------------------------------
---5-5---5-5---5-5---5-5---3---3--3--3--3--3--3--3--3--------------
---5-5---5-5---5-5---5-5---3---3--3--3--3--3--3--3--3--------------
---3-3---3-3---3-3---3-3---1---1--1--1--1--1--1--1--1--------------
-----------------------|-------------------------------------------
-----------------------|-------------------------------------------
-----------------------|-------------------------------------------
---8---3---5-5-5-5-----|---3-----5-----8-----10--------------------
---8---3---5-5-5-5-----|---3-----5-----8-----10--------------------
---6---1---3-3-3-3-----|---1-----3-----6-----8---------------------
[G5]Cold late night so long ago
When I was not so strong you know
A prett[F5]y man came to me

Never seen eyes so blue
I co[G5]uld not run away

It seemed we'd seen each other in a dream
It se[F5]emed like he knew me
He looked right through me   yeah                [G5]
"C[Bb]ome on home, g[F]irl" he said with a [G5]smile
"Y[Bb]ou don't have to love [F5]me yet
Let's g[G5]et high awhile
But try [F]to understand
[G]Try to understand
[Bb]Try try try to understand             [C]
I'm a magic man."       [G5]

(VERSE)

(CHORUS)

(CHORUS)

Important: The song above is NOT stored on the Chordie server. The original song is hosted at www.xguitar.com. Chordie works as a search engine and provides on-the-fly formatting. Chordie does not index songs against artists'/composers' will. To remove this song please click here.

Text color:
Chord color:
Chord grids: 
Font size:    
Page size: 

Bb C F F5 G G5
variations - click chord images

Login - add to songbook

Transpose chords

Tuning

Rating click stars to rate

Layout
Accuracy

SHARE PAGE  




You need to log in to post comments