Nothin' at All

Heart

--------0--5--------5----I---------0--3--------3-------------

----3---------3----------I------3--------3--------------------
-2---------------2-------I---2--------------2----------------
-------------------------I------------------------------------
-------------------------I------------------------------------
-------------------------I------------------------------------
D-G-D-G F-C-G F-C-D
G-C-D-G-C-D F-C-G F-C-D G-C-D
-----------------------------------------------------
-15--12--13--15--15--12—13-15-15b-15b----------------
-----------------------------------------12----------
---------------------------------------------14-12--
----------------------------------------------------
-----------------------------------------------------
--------------------------------------------15-15-14h15p14----
-13-12-------------13-12---------------------------------------
--------12-14b-12--------12-14-14b-11-----------------------
------------------------------------------------------------------
------------------------------------------------------------------
------------------------------------------------------------------
------------------------------------------------------------
-17-15-15-----12-12h13p12-10--------------------------
------------12--------------------12-12-12-14-14b------
------------------------------------------------------------
------------------------------------------------------------
------------------------------------------------------------
---------------------17-17b---------------------------------
-15b-15-17-19-20------------20-19--------------------------
-------------------------------------19----------------------
-----------------------------------------17-19--------------
------------------------------------------------------------
------------------------------------------------------------

 DG
I would walk home every evening, through the pyramids of light,
 DG
I would feed myself on silence, wash it down with empty nights,

PRE-CHORUS 1:

 CG
Then your innocent distractions hit me so hard
 CD
My emotional reaction caught me off guard

CHORUS:

 DG
It was nothin' at all (nothin at all)
 CD
Like anything I had felt before
 DG
No, nothin' at all (nothin at all)
 CD
Like a thought, no it's so much more
 CG
No one else has ever made me feel this way
 CD
When I ask you how you did it, you just say
 DG
It was nothin at all (nothin at all)

VERSE 2:

 DG
Now I walk home every evening, and my feet are quick to move,
 DG
Cause I know my destination, is a warm and waiting you,

PRE-CHORUS 2:

 CG
From our first communication, it was clear
 CD
Any thought of moderation would soon disappear

REPEAT CHORUS

GUITAR SOLO
PRE-CHORUS 1
CHORUS x2


C D G
variations - click chord images
Transpose chords:
Tuning:
Cool service:
View: Size:
A  A  A
Rating:
Layout:
  • Currently 3.2/5 Stars.
  • 1
  • 2
  • 3
  • 4
  • 5
 
Accuracy:
  • Currently 2.9/5 Stars.
  • 1
  • 2
  • 3
  • 4
  • 5
 
click stars to rate
Chordie recommends:
Learn how to play guitar at JamPlay.com
Songbook:
Login to add this song to your songbook
Support the artist
Preview/buy this song
MSN Music
Why this non-profit ad?

 
login to add comments/video/corrections