Barracuda

Heart

E|------------------------------------------------------ |

B|------------------------------------------------------ |
G|------------------------------------------------------ | keep repeating for
D|--2---222-222-222-222-222-22--4/--5------------------- | however long.
A|--2---222-222-222-222-222-22--4/--5------------------- |
E|--0---000-000-000-000-000-00--2/--3------------------- |
E|-11b--10p9p8---14b--12--14--15------------------------------------------- |
B|--------------------------------13--15--/17------------------------------ |
G|---------------------------------------------13--15--/17----------------- |
D|-----------------------------------------------------------13b----------- |
A|------------------------------------------------------------------------- |
E|------------------------------------------------------------------------- |
E|--12--14--15--14--12p11p10---12--14--15--17--18b-17---20b--16--------- |
B|---------------------------------------------------------------------- |
G|---------------------------------------------------------------------- |
D|---------------------------------------------------------------------- |
A|---------------------------------------------------------------------- |
E|---------------------------------------------------------------------- |

 EF#G

 EC
     So this ain't the end - I saw you again today
 E
     I had to turn my heart away  
 C
     Smile like the Sun - kisses for ev'ry one
 E
     and tales - it never fails!

CHORUS 1
 CE
        You lying so low in the weeds   
 CE
        I bet you gonna ambush me   
 DA
        You'd have me down, down, down, down on my knees
(tacet) E F# G
Now wouldn't you, Barracuda?

 EC
     Back over time when we were all trying for free
 E
     you met up with porpoise and me   
 C
     No right, no wrong; selling a song - a name
 E
     Whisper game.

CHORUS 2
 CE
        And if the real thing don't do the trick  
 CE
        You better make up something quick   
 DA
        You gonna burn, burn, burn, burn it to the wick
 E
        Oooh, Barracuda?

 C
     "Sell me sell you" the porpoise said
 AE
     Dive down deep, now.  Save my head. You ...

I think that you got the blues too.
 C
     All that night and all the next
 A
     Swam without looking back
 E
     Made for the western pools -- silly, silly fools.

CHORUS 2


A C D E F# G
variations - click chord images
Transpose chords:
Tuning:
Cool service:
View: Size:
A  A  A
Rating:
Layout:
  • Currently 2.7/5 Stars.
  • 1
  • 2
  • 3
  • 4
  • 5
 
Accuracy:
  • Currently 2.5/5 Stars.
  • 1
  • 2
  • 3
  • 4
  • 5
 
click stars to rate
Chordie recommends:
Learn to play songs at Jamplay.com with video guitar lessons
Songbook:
Login to add this song to your songbook
Support the artist
Preview/buy this song
MSN Music
Why this non-profit ad?

 
login to add comments/video/corrections