Guitar Tabs, Chords and Lyrics


Octopussy    Hed Pe



Song: Octopussy
Band:(Hed)p.e.
Album: Blackout
Tabber: crazytom
deathtone@wanadoo.fr

Tuning: Drop B (B,F#,B,E,G#,C#)
*: palm mute

C#|-----------------------|--------------------------
G#|-----------------------|---10-10-10-10-10-10-10---
 E|-------4h5-------------|--------------------------
 B|---5-6-----6-5-6-------|--------------------------
F#|-----------------8-7---|--------------------------
 B|-----------------------|--------------------------

C#|---------------------|---------------------
G#|---------------------|---------------------
 E|---------------------|---------------------
 B|---5-6-9-6-3-6-2-0---|---5-6-9-6-3-6-2-0---
F#|---5-6-9-6-3-6-2-0---|---5-6-9-6-3-6-2-0---
 B|---5-6-9-6-3-6-2-0---|---5-6-9-6-3-6-2-0---


Important: The song above is NOT stored on the Chordie server. The original song is hosted at www.xguitar.com. Chordie works as a search engine and provides on-the-fly formatting. Chordie does not index songs against artists'/composers' will. To remove this song please click here.

This song is displayed as text-only. Transposing and tuning is only available for chordpro-songs.

Login - add to songbook

Rating click stars to rate

Layout
Accuracy

SHARE PAGE  




You need to log in to post comments