Chordie logo

Ken 2012    Hed Pe



Ken 2012
(Hed)pe
tabbed by crazytom
deathtone@wanadoo.fr

Verse:
---4-4-4-4-4-4---|---7-6-5-----------
---4-4-4-4-4-4---|---------7-5-------
-----------------|-------------7-4---
-----------------|-------------------
-----------------|-------------------
-----------------|-------------------

---13-12--------10-9---------------
---------10-9--------8-7---10-12---
-----------------------------------
-----------------------------------
-----------------------------------
-----------------------------------

Chorus :
--------------------------------------
--------------------------------------
-----10-10---10--------10-10---10-----
---9-10-10-9-10-9---9--10-10-9-10-9---
---9-8--8--9-8--9---9--8--8--9-8--9---
---7-------7----7---7--------7----7---

Bridge :
-------------------------
-------------------------
------10-----10-----10---
---9--10--9--10--9--10---
---9--8---9--8---9--8----
---7------7------7-------

Solo :
----------------------------------
-------7-6-5--7-6--7-5--7-6-5-7---
---8------------------------------
----------------------------------
----------------------------------
----------------------------------

-------------------------------------
-------------------------------------
---4---7-6-5---7-6---7-5---7-6-5-7---
---4---7-6-5---7-6---7-5---7-6-5-7---
---2---5-4-3---5-4---5-3---5-4-3-5---


Important: The song above is NOT stored on the Chordie server. The original song is hosted at www.xguitar.com. Chordie works as a search engine and provides on-the-fly formatting. Chordie does not index songs against artists/composers will. To remove this song please click here.

This song is displayed as text-only. Transposing and tuning is only available for chordpro-songs.

Login - add to songbook

Rating click stars to rate

Layout
Accuracy

SHARE PAGE  



You need to log in to post comments