Guitar Tabs, Chords and Lyrics


P.O.S.    Hed Pe



P.O.S.
(Hed)pe
tabbed by crazytom
deathtone@wanadoo.fr

Intro:
------------------
------------------
-------6---///7---
-----6-----///7---
---4--------------
------------------

riff1: (00:40 01:27)
---------------------
---------------------
---6-6---------------
---6-6-8-8-4-4-2-2---
---4-4-8-8-4-4-2-2---
-------6-6-2-2-0-0---

riff2: (00:43 01:30)
gtr1:                   gtr2:
-----------------------|----------------------
-----------------------|----------------------
---6-6-------6-6-------|------6--------6------
---6-6-7-8---6-6-7-8---|------------------5---
---4-4-7-8---4-4-7-8---|---4--------4---------
-------5-6-------5-6---|----------------------

riff3: (00:58 01:37)
------------------
------------------
------------------
---2--8-8-8-7-7---
---2--8-8-8-7-7---
---0--6-6-6-5-5---

fill 1: (01:22)
-------------9--------9---
-------5-------8----------
---6-----6---------6------
--------------------------
--------------------------
--------------------------

fill 2: (02:00)
--------------------------9-9-9---9-9-9---10-10-10////---
---------------------------------------------------------
------------------------6-------6-------6----------------
---5-5-5---5-5-5-----------------------------------------
---------------------------------------------------------
---------------------------------------------------------

riff4: (02:16)
---------------------------------------
---------------------------------------
---6-6---------------4-4-3-3-2-2-------
---6-6-8-8-5-5-2-2---4-4-3-3-2-2-5-5---
---4-4-8-8-5-5-2-2---2-2-1-1-0-0-5-5---
-------6-6-3-3-0-0---------------3-3---
gtr2:
-----9-9-9-10----9-9-9-10----9-10-9-8---
----------------------------------------
---6-----------6-----------6------------
----------------------------------------
----------------------------------------
----------------------------------------

riff5: (02:48)
---------------------0---
---------------------0---
---------------------0---
---3-2-2h3p2-2-3-2-3-0---
---3-2-2h3p2-2-3-2-3-----


Important: The song above is NOT stored on the Chordie server. The original song is hosted at www.xguitar.com. Chordie works as a search engine and provides on-the-fly formatting. Chordie does not index songs against artists'/composers' will. To remove this song please click here.

This song is displayed as text-only. Transposing and tuning is only available for chordpro-songs.

Login - add to songbook

Rating click stars to rate

Layout
Accuracy

SHARE PAGE  




You need to log in to post comments