Chordie logo

Killing Time    Hed Pe



(hed) P.E.
***Track 1 Killing Time

Intro, gtr1
(--------9---------
(------------------
(------------------
(------------9-----
(-9--9-9---9-9-----
(-7--7-7---7-7-----
(------------------

Chorus A, gtr1 gtr2
(-----------------------------
(-----------------------------
(-----------------------------
(-----------------------------
(-----------------------------
(------7-----10-9-9-9-9-8-8-8-
(-0--0---0-0------------------

Chorus B, gtr1 gtr2
(-----------------------------------------
(-----------------------------------------
(-----------------------------------------
(-----------------------------------------
(----------------12\11-11-11-11\10-10-10--
(-14-14-14-14-14-10\-9--9--9--9\-8--8--8--
(--0--0-12--0--0--------------------------

Verse 1, gtr1
(---------------------
(---------------------
(---------------------
(-16--15----14--12----
(-17--16----15--14----
(---------------------
(---------------------

Pre-chorus, gtr1 gtr2
(---------------------------------
(-0-------------------------------
(-0-------------------------------
(---------------------------------
(-3/4-4-4-4/5-5-5-5/6-6-6-6/7-7-7-
(-3/4-4-4-4/5-5-5-5/6-6-6-6/7-7-7-
(-1/2-2-2-2/3-3-3-3/4-4-4-4/5-5-5-

Verse 2, gtr1 gtr2
(--------------------- (gtr1 plays original
(--------------------- verse, gtr2 plays this)
(-8--8--8--8--8b------
(---------------------
(---------------------
(---------------------
(---------------------

Verse 3A, gtr1 gtr2
(------7---------(7)--
(-0--------(0)--------
(---4---------(4)-----
(---------------------
(---------------------
(---------------------
(---------------------

(---------------------
(---------------------
(---------------------
(------------14--12---
(------------15--14---
(---------------------
(---------------------

Bridge, gtr1 gtr2
(--------------------
(--------------------
(--------------------
(--------------------

(--------------------
(--------------------
(-0--0--12-0-0-------
..\..\...\...\...wah pedal
Fill, gtr1 gtr2
(-------------------- (on c#5 add a
(--------------------  tiny bend)
(--------------------
(--------------------
(--------------------
(-3/4--3/4--3/4--3/4-
(-1/2--1/2--1/2--1/2-



Important: The song above is NOT stored on the Chordie server. The original song is hosted at www.xguitar.com. Chordie works as a search engine and provides on-the-fly formatting. Chordie does not index songs against artists/composers will. To remove this song please click here.

This song is displayed as text-only. Transposing and tuning is only available for chordpro-songs.

Login - add to songbook

Rating click stars to rate

Layout
Accuracy

SHARE PAGE  

You need to log in to post comments