Chordie logo


Waiting to Die    Hed Pe



(hed)P.E.
***Track 2 Waiting To Die

Intro, gtr1
(-----------------------
(-----------------------
(--------------------8--
(-0-0-7-7------6-6-5----
(---------8--8----------
(-----------------------
(-----------------------

Verse, gtr1 then gtr2 after a while
(-----------------------
(-----------------------
(-----------------------
(-----------------------
(--------------------5--
(-----5-5-1--1-4-4-3----
(-3-3-------------------

Pre-chorus, gtr1 gtr2
(---------------------
(---------------------
(---------------------
(---------------------
(-----6-6--------6----
(-8-8-4-4-7--7-8-4-7--
(-6-6-----5--5-6---5--

Chorus, gtr1 gtr2
(----------------------
(----------------------
(----------------------
(-----6----------------
(-----5--7---3---6-----
(-5---4--5---1---4--7--
(-3-----------------5--

(----------------------*------------------
(----------------------*------------------
(----------------------*--8---------------
(-pb7---------------r6-*-(0)--------------
(----------------------*------------------
(----------------------*------------------
(----------------------*------------------

Pre-interlude, gtr1 gtr2
(------------------------
(------------------------
(------14-15------14-----
(-12---------15------13--
(------------------------
(------------------------
(------------------------

(------------------------
(------------------------
(------------------------
(------------------------
(----------5----------5--
(------------------------
(-3-3-3-3-3--3-3-3-3-3---

Interlude, gtr1 gtr2
(--------------------------------- (first done with palm muting,
(---------------------------------  then guitar two plays in 5ths
(---------------------------------  and guitar one in single notes)
(---------------------------------
(---------------------------------
(-----4-4-5-5-----4-4-----3-3-----
(-3-3---------3-3-----5-5-----6-6-

Outro(pre-interlude, then...)
(------------------
(------------------
(------------------
(-6~~~~~-----------
(-6~~~~~---5-------
(-4~~~~~---5-------tremolo bar


Important: The song above is NOT stored on the Chordie server. The original song is hosted at www.xguitar.com. Chordie works as a search engine and provides on-the-fly formatting. Chordie does not index songs against artists/composers will. To remove this song please click here.

This song is displayed as text-only. Transposing and tuning is only available for chordpro-songs.

Login - add to songbook

Rating click stars to rate

Layout
Accuracy

SHARE PAGE  




You need to log in to post comments