Chordie logo


I Can Climb Mountains    Hell Is For Heroes



Song - I Can Climb Mountains
Band - Hell Is For Heroes
Tabbed By - Michael Sands

This tab should be right because Will tought it me at an AAF gig!!

Tuning D A D G B E

Intro

Guitar 1 - Will(harmonics)
E]----------------------------------------------
B]----------------------------------------------
G]----------------------------------------------    PLAY x2
D]---5------4-----------------------------------
A]--5--x3--4--x3--------------------------------
D]-5------4-------------------------------------

Verse

Guitar 1 - Will(harmonics)
E]----------------------------------------------
B]----------------------------------------------
G]----------------------------------------------    PLAY x1
D]---5------4-----------------------------------
A]--5--x3--4--x3--------------------------------
D]-5------4-------------------------------------

Guitar 2 - Tom(palm mute)
E]----------------------------------------------
B]----------------------------------------------
G]----------------------------------------------    PLAY x3
D]----------------------------------------------
A]--------------2222------------2222------------
D]-0000000000000----444444444444----------------

Chorus

Guitar 1 - Will
E]-----------------------------------
B]-----------------------------------
G]-7xx7x7-4-44--7xx7x7-44-4--44---44- Play x2
D]-5xx5x5-4-44--5xx5x5-44-4--22---22-
A]-5xx5x5-2-22--5xx5x5-24-2--22---22-
D]-5xx5x5-------5xx5x5-------22---22-

Guitar 2 - Tom
E]---------------------------------------------------------------------------------------
B]---------------------------------------------------------------------------------------
G]-4xx4x4-6x6/7-7--4xx4x4-6x6/7-7--99999999/11-1111111111/12--99999999/11-1111111111/12--   Play x2
D]---------------------------------------------------------------------------------------
A]-2xx2x2-4x4/5-5--2xx2x2-4x4/5-5--77777777/9--9-9-9-9-9-/10--77777777/9--9-9-9-9-9-/10--
D]---------------------------------------------------------------------------------------

Bridge

Guitar 1 and 2 - Will and Tom
E]--------------------
B]--------------------
G]--------------------  PLAY x4 together then x3 just Will
D]-8-888-0-00880------
A]-8-888-0-00880------
D]-8-888-0-00880------


Guitar 2 Tom
E]------------------------
B]------------------------
G]-10-101010-9-99999------
D]-x--x-x-x--x-xxxxx------ play x3
A]-8--8-8-8--7-77777------
D]------------------------


Guitar 1 and 2 - Will and Tom
E]------------------------
B]------------------------
G]-77777777-99999999------    PLAY x1
D]-55555555-77777777------
A]-55555555-77777777------
D]-55555555-77777777------

Bridge 2

Guitar 1 - Will
E]----------------------2222-2-2222-2-2222---
B]---7777-7-7777-7-7777-3333-3-3333-3-3333---
G]---7777-7-7777-7-7777-2222-2-2222-2-2222---    PLAY x4
D]---5555-5-5555-5-5555-0000-0-0000-0-0000---
A]---5555-5-5555-5-5555-0000-0-0000-0-0000---
D]---5555-5-5555-5-5555-0000-0-0000-0-0000---

Guitar 2 - Tom
E]-----------------------------------------------------------
B]-----------------------------------------------------------
G]-11111111-11-11111111-11-11111111--6666-6-6666-6-6666------   Play x4
D]-----------------------------------------------------------
A]-9-9-9-9--9--9-9-9-9--9--9-9-9-9---4444-4-4444-4-4444------
D]-----------------------------------------------------------

Then they go into the chorus again and they have added a different


Important: The song above is NOT stored on the Chordie server. The original song is hosted at www.xguitar.com. Chordie works as a search engine and provides on-the-fly formatting. Chordie does not index songs against artists/composers will. To remove this song please click here.

This song is displayed as text-only. Transposing and tuning is only available for chordpro-songs.

Login - add to songbook

Rating click stars to rate

Layout
Accuracy

SHARE PAGE  




You need to log in to post comments