Guitar Tabs, Chords and Lyrics


Follow the Sign    Helloween



Follow the sign

e-amil:dead_evil@hotmail.com
                                                          H  P
---H--P--P------------------------------H--P--P----12-----11-12-11----11------
-12-13-12-10-12-----(12)~~~-----------12-13-12-10------------------13------13-
------------------------------------------------------------------------------
------------------------------------------------------------------------------
------------------------------------------------------------------------------
------------------------------------------------------------------------------

 Now                that you've made your cohice,         Follow the sign
---H--P--P------H---P---H---P-------------------------------------------------
-12-13-12-10-12--13--12--13--12--10--12---------(12)~~~-------(12)\\/\\/\\/------
------------------------------------------------------------------------------
------------------------------------------------------------------------------
------------------------------------------------------------------------------
------------------------------------------------------------------------------

                                S
-------S--S----S-----2----3----3/5----3----2----------------------------------
-(12)--\\--\\---4/5-------------------------------------Slight-bend-------------
------------------------------------------------4----5'-----------(5)---------
------------------------------------------------------------------------------
------------------------------------------------------------------------------
------------------------------------------------------------------------------


------------------------------------------------------------------------------
--Full------------------------------------------------------------------------
-5'--`---4-----2---------------------------------------------------------11---
-------------------5---4---2---0---2------(2)~~~-------------------14---------
------------------------------------------------------------------------------
-----------------------------------------------------0------(0)---------------


------------------------------------S-----------------Full--P-----------------
--------S--------------------12---12/13-----~~~----13'-----`-12--------/\\/\\---
-12---12/-14---12-------------------------------------------------------------
------------------------------------------------------------------------------
---------------------14/\\/\\---------------------------------------------------
------------------------------------------------------------------------------

                                          Did you make your choice?
------------------------------------------------------------------------------
------------------------------------------------------------------------------
-14---12---11--------------------------------------------------------------11-
----------------14---12---14-------(14)~~--------------------------14---------
------------------------------------------------------------------------------
------------------------------------------------------------------------------

                                   You're the keeper of the seven keys
----------------Bend----------------------------------------------------------
------S---------with bar-----H--P---------------------------------------------
----11/12---11--\\---/------11-12-11---------------S---------------------------
------------------------------------14----12----12/14--------~~----------14---
------------------------------------------------------------------------------
------------------------------------------------------------------------------


------------------------------------------------------------------------------
----------S--------------------H--P---------------------------12--12-12-12----
---11---11/12----11----------11-12-11-----------------------------------------
---------------------------------------12---12/14-----~~----------------------
------------------------------------------------------------------------------
------------------------------------------------------------------------------


--------H------------H------H--P--H--P--H--P--H--P----------------------------
--12-12--13-----12----13--12-13-12-13-12-13-12-13-12--------------------------
-----------------------------------------------------14----------------14--14-
------------------------------------------------------------------------------
------------------------------------------------------------------------------
------------------------------------------------------------------------------

                                                                         Pm
--------------------S---------------H--P--------H--P--------H--H--P--P------
------------12----12/13-----------12-13-12----12-13-12----12-13-15-13-12----
-14\\/\\---------------------14--------------14----------14----------------14-
----------------------------------------------------------------------------
----------------------------------------------------------------------------
----------------------------------------------------------------------------


---P--H--H--P------H--P-----P--P--------H--P----------------------------------
-12-10-12-13-12--12-13-12-15-13-12----12-13-12------Full-----------12----13---
-----------------------------------14-----------14--'-----(16)----------------
------------------------------------------------------------------------------
------------------------------------------------------------------------------
------------------------------------------------------------------------------


---H--P-----------------------------------------------------------------------
-12-13-13---------------------------------------------------------------------
-----------14------~~----------12-----11---------------------Full-------------
---------------------------------------------14-----12-----14'----(16)---14---
------------------------------------------------------------------------------


Important: The song above is NOT stored on the Chordie server. The original song is hosted at www.xguitar.com. Chordie works as a search engine and provides on-the-fly formatting. Chordie does not index songs against artists'/composers' will. To remove this song please click here.

This song is displayed as text-only. Transposing and tuning is only available for chordpro-songs.

Login - add to songbook

Rating click stars to rate

Layout
Accuracy

SHARE PAGE  




You need to log in to post comments