Guitar Tabs, Chords and Lyrics


Vaccination    Helmet



Artist - Helmet
Song - Vaccination
Album - Betty
Tabbed by an18nin18

Drop D Tuning - D, A, D, G, B, E

Note - This song is odd because the time signiture is 7/8, so the main riff takes some doing.  Learn it by playing along with the track until you get the right feel, practise makes perfect on this one.

Verse
                                    1,2,3,5,6,7|         4|       8|
|-----|-----------------------------|----------|----------|--------|
|-----|-----------------------------|----------|----------|--------|
|-----|-----------------------------|----------|----------|--------|
|-0-9-|-0-0-9-0-0-9-0---0-0-9-0-0-9-|-10-0-0-9-|-12-0-0-9-|-10-0-0-|
|-0-9-|-0-0-9-0-0-9-0---0-0-9-0-0-9-|-10-0-0-9-|-12-0-0-9-|-10-0-0-|
|-0-9-|-0-0-9-0-0-9-0---0-0-9-0-0-9-|-10-0-0-9-|-12-0-0-9-|-10-0-0-|

Chorus

|-------------------------|
|-------------------------|
|-------------------------|
|-0--3/-4-4-4-0--3/-3h4-4-|
|-0--3/-4-4-4-0--3/-3h4-4-|
|-0--3/-4-4-4-0--3/-3h4-4-|
  Play x 4

|-------|--------------------------------------|
|-------|--------------------------------------|
|-------|--------------------------------------|
|-0-0-9-|-0-0-9-0-0-9-0---0-0-9-0-0-9-10-0-0-9-|
|-0-0-9-|-0-0-9-0-0-9-0---0-0-9-0-0-9-10-0-0-9-|
|-0-0-9-|-0-0-9-0-0-9-0---0-0-9-0-0-9-10-0-0-9-|
        | Play x 5

|-------------------------|
|-------------------------|
|-------------------------|
|-0--3/-4-4-4-0--3/-3-4-4-|
|-0--3/-4-4-4-0--3/-3-4-4-|
|-0--3/-4-4-4-0--3/-3-4-4-|
  Play x 4

Middle 8

|---------------------------------|
|---------------------------------|
|---------------------------------|
|-6-6-1-1-4-4-6-3---3-1-1-3-3-4-0-|
|-6-6-1-1-4-4-6-3---3-1-1-3-3-4-0-|
|-6-6-1-1-4-4-6-3---3-1-1-3-3-4-0-|
  Play x 4

|-------|--------------------------------------|
|-------|--------------------------------------|
|-------|--------------------------------------|
|-0-0-9-|-0-0-9-0-0-9-0---0-0-9-0-0-9-10-0-0-9-|
|-0-0-9-|-0-0-9-0-0-9-0---0-0-9-0-0-9-10-0-0-9-|
|-0-0-9-|-0-0-9-0-0-9-0---0-0-9-0-0-9-10-0-0-9-|
        | Play x 6

|-------------------------|----------|
|-------------------------|----------|
|-------------------------|--MENTAL--|
|-0--3/-4-4-4-0--3/-3-4-4-|----------|
|-0--3/-4-4-4-0--3/-3-4-4-|-FREAKOUT-|
|-0--3/-4-4-4-0--3/-3-4-4-|----------|
  Play x 14               |

And Thats it.

If you have any comments contact me at c.norman83@ntlworld.com



Important: The song above is NOT stored on the Chordie server. The original song is hosted at www.xguitar.com. Chordie works as a search engine and provides on-the-fly formatting. Chordie does not index songs against artists'/composers' will. To remove this song please click here.

This song is displayed as text-only. Transposing and tuning is only available for chordpro-songs.

Login - add to songbook

Rating click stars to rate

Layout
Accuracy

SHARE PAGE  




You need to log in to post comments