Chordie logo

Smart    Helmet



Artist - Helmet
Song - Smart
Album - None
Tabbed by an18nin18

This is Helmet's NEW song that hasen't been released, you can only listen to it if you have their greatest hits album.  This is a cool song and I can't wait for a supposed new album later this year, if anyone cares.

Drop C Tuning - C, G, C, F, A, D

Intro

|--------------------------------------------------------------------|
|--------------------------------------------------------------------|
|--------------------------------------------------------------------|
|-0-3-3-0-5-5-3^-0-0-3-3-0-5-5-3^-0-0-3-3-0-5-5-3^-0-0-3-3-0-6-6-5-6-|
|-0-3-3-0-5-5-3^-0-0-3-3-0-5-5-3^-0-0-3-3-0-5-5-3^-0-0-3-3-0-6-6-5-6-|
|-0-3-3-0-5-5-3^-0-0-3-3-0-5-5-3^-0-0-3-3-0-5-5-3^-0-0-3-3-0-6-6-5-6-|
  Play x 2

|-----------------|
|-----------------|
|-----------------|
|-6-6-5-0-3-5-5-3-|
|-6-6-5-0-3-5-5-3-|
|-6-6-5-0-3-5-5-3-|

Verse

|------------------------|--------|------------------------|----------|
|------------------------|--------|------------------------|----------|
|------------------------|--------|------------------------|----------|
|-3--0--6^-0--3--0--6^-0-|-2-2--1-|-3--0--6^-0--3--0--6^-0-|-1-1--2-2-|
|-3--0--6^-0--3--0--6^-0-|-2-2--1-|-3--0--6^-0--3--0--6^-0-|-1-1--2-2-|
|-3--0--6^-0--3--0--6^-0-|-2-2--1-|-3--0--6^-0--3--0--6^-0-|-1-1--2-2-|
  Play x 5               |        | Play x 5

Chorus

|-3-3-3-3-3-3-3-3------0-0-0-0-0-0-0-0-1-1-1-1-1-1-1-1-2-2-2-2-2-2-2-2-|
|-6-6-6-6-6-6-6-6------3-3-3-3-3-3-3-3-4-4-4-4-4-4-4-4-5-5-5-5-5-5-5-5-|
|-5-5-5-5-5-5-5-5------2-2-2-2-2-2-2-2-3-3-3-3-3-3-3-3-4-4-4-4-4-4-4-4-|
|-3-3-3-3-3-3-3-3-/6-5-0-0-0-0-0-0-0-0-1-1-1-1-1-1-1-1-2-2-2-2-2-2-2-2-|
|-3-3-3-3-3-3-3-3-/6-5-0-0-0-0-0-0-0-0-1-1-1-1-1-1-1-1-2-2-2-2-2-2-2-2-|
|-3-3-3-3-3-3-3-3-/6-5-0-0-0-0-0-0-0-0-1-1-1-1-1-1-1-1-2-2-2-2-2-2-2-2-|
  Play x 2

|--------------------------------------------------------------------|
|--------------------------------------------------------------------|
|--------------------------------------------------------------------|
|-0-3-3-0-5-5-3^-0-0-3-3-0-5-5-3^-0-0-3-3-0-5-5-3^-0-0-3-3-0-6-6-5-6-|
|-0-3-3-0-5-5-3^-0-0-3-3-0-5-5-3^-0-0-3-3-0-5-5-3^-0-0-3-3-0-6-6-5-6-|
|-0-3-3-0-5-5-3^-0-0-3-3-0-5-5-3^-0-0-3-3-0-5-5-3^-0-0-3-3-0-6-6-5-6-|
  Play x 2

|-----------------|
|-----------------|
|-----------------|
|-6-6-5-0-3-5-5-3-|
|-6-6-5-0-3-5-5-3-|
|-6-6-5-0-3-5-5-3-|

|--------------------------------------------------------------------|
|--------------------------------------------------------------------|
|--------------------------------------------------------------------|
|-0-3-3-0-5-5-3^-0-0-3-3-0-5-5-3^-0-0-3-3-0-5-5-3^-0-0-3-3-0-6-6-5-6-|
|-0-3-3-0-5-5-3^-0-0-3-3-0-5-5-3^-0-0-3-3-0-5-5-3^-0-0-3-3-0-6-6-5-6-|
|-0-3-3-0-5-5-3^-0-0-3-3-0-5-5-3^-0-0-3-3-0-5-5-3^-0-0-3-3-0-6-6-5-6-|
  Play x 2

|-----------------|
|-----------------|
|-----------------|
|-6-6-5-0-3-5-5-3-|
|-6-6-5-0-3-5-5-3-|
|-6-6-5-0-3-5-5-3-|

|------------------------|--------|------------------------|-----------|
|------------------------|--------|------------------------|-----------|
|------------------------|--------|------------------------|-----------|
|-3--0--6^-0--3--0--6^-0-|-2-2--1-|-3--0--6^-0--3--0--6^-0-|-0-0-0-1-1-|
|-3--0--6^-0--3--0--6^-0-|-2-2--1-|-3--0--6^-0--3--0--6^-0-|-0-0-0-1-1-|
|-3--0--6^-0--3--0--6^-0-|-2-2--1-|-3--0--6^-0--3--0--6^-0-|-0-0-0-1-1-|
  Play x 2               |        | Play x 5               | PM………

|------------------------|-----1-1-----1-1-----1-1-----1-2-|
|------------------------|-----4-4-----4-4-----4-4-----4-5-|
|------------------------|-----3-3-----3-3-----3-3-----3-4-|
|-3--0--6^-0--3--0--6^-0-|-0-0-1-1-0-0-1-1-0-0-1-1-0-0-1-2-|
|-3--0--6^-0--3--0--6^-0-|-0-0-1-1-0-0-1-1-0-0-1-1-0-0-1-2-|
|-3--0--6^-0--3--0--6^-0-|-0-0-1-1-0-0-1-1-0-0-1-1-0-0-1-2-|
  Play x 4               | PM…     PM…     PM…     PM…

                                                                      1,3|
|-3-3-3-3-3-3-3-3------0-0-0-0-0-0-0-0-1-1-1-1-1-1-1-1-|-2-2-2-2-2-2-2-2-|
|-6-6-6-6-6-6-6-6------3-3-3-3-3-3-3-3-4-4-4-4-4-4-4-4-|-5-5-5-5-5-5-5-5-|
|-5-5-5-5-5-5-5-5------2-2-2-2-2-2-2-2-3-3-3-3-3-3-3-3-|-4-4-4-4-4-4-4-4-|
|-3-3-3-3-3-3-3-3-/6-5-0-0-0-0-0-0-0-0-1-1-1-1-1-1-1-1-|-2-2-2-2-2-2-2-2-|
|-3-3-3-3-3-3-3-3-/6-5-0-0-0-0-0-0-0-0-1-1-1-1-1-1-1-1-|-2-2-2-2-2-2-2-2-|
|-3-3-3-3-3-3-3-3-/6-5-0-0-0-0-0-0-0-0-1-1-1-1-1-1-1-1-|-2-2-2-2-2-2-2-2-|

                2,4|
|-/6-6-6-6-6-6-6-6-|
|-/9-9-9-9-9-9-9-9-|
|-/8-8-8-8-8-8-8-8-|

|-/6-6-6-6-6-6-6-6-|
|-/6-6-6-6-6-6-6-6-|
|-/6-6-6-6-6-6-6-6-|

Outro

|--------------------------------------------------------------------|
|--------------------------------------------------------------------|
|--------------------------------------------------------------------|
|-0-3-3-0-5-5-3^-0-0-3-3-0-5-5-3^-0-0-3-3-0-5-5-3^-0-0-3-3-0-6-6-5-6-|
|-0-3-3-0-5-5-3^-0-0-3-3-0-5-5-3^-0-0-3-3-0-5-5-3^-0-0-3-3-0-6-6-5-6-|
|-0-3-3-0-5-5-3^-0-0-3-3-0-5-5-3^-0-0-3-3-0-5-5-3^-0-0-3-3-0-6-6-5-6-|
  Play x 2

|-----------------|
|-----------------|
|-----------------|
|-6-6-5-0-3-5-5-3-|
|-6-6-5-0-3-5-5-3-|
|-6-6-5-0-3-5-5-3-|

|--------------------------------------------------------------------|
|--------------------------------------------------------------------|
|--------------------------------------------------------------------|
|-0-3-3-0-5-5-3^-0-0-3-3-0-5-5-3^-0-0-3-3-0-5-5-3^-0-0-3-3-0-6-6-5-6-|
|-0-3-3-0-5-5-3^-0-0-3-3-0-5-5-3^-0-0-3-3-0-5-5-3^-0-0-3-3-0-6-6-5-6-|
|-0-3-3-0-5-5-3^-0-0-3-3-0-5-5-3^-0-0-3-3-0-5-5-3^-0-0-3-3-0-6-6-5-6-|
  Play x 2

|-----------------|
|-----------------|
|-----------------|
|-6-6-5-0-3-5-5-3-|
|-6-6-5-0-3-5-5-3-|
|-6-6-5-0-3-5-5-3-|

And Thats it, every single helmet song.



Important: The song above is NOT stored on the Chordie server. The original song is hosted at www.xguitar.com. Chordie works as a search engine and provides on-the-fly formatting. Chordie does not index songs against artists/composers will. To remove this song please click here.

This song is displayed as text-only. Transposing and tuning is only available for chordpro-songs.

Login - add to songbook

Rating click stars to rate

Layout
Accuracy

SHARE PAGE  

You need to log in to post comments