Guitar Tabs, Chords and Lyrics
Major upgrade!! After one year development the new version of Chordie is now online! Please give feedback.


American Classic   Hidden in Plain View

 
 e |----------------------------------|
 B |----------------------------------|
 G |-----9---9h11p9--11p9------9----9-|
 D |---9---9--------------9-----------|
 A |-------------------------6--6-7---|
 E |----------------------------------|

 


 


 Chorus


 


 E5 | G# | A | B :||


 


 Verse


 


 

 
 e |----------------------------------|
 B |----------------------------------|
 G |-----9---9h11p9--11p9------9----9-|
 D |---9---9--------------9-----------|
 A |-------------------------6--6-7---|
 E |----------------------------------|

 


 


 Chorus


 


 E5 | G# | A | B :|| 2x


 


 then


 


 

 
 e|-------------------------|--------|
 B|--10-10-10-10-10-10-10-9-|10-9-12-|
 G|-------------------------|--------|
 D|-------------------------|--------|
 A|-------------------------|--------|
 E|-------------------------|--------|


Important: The song above is NOT stored on the Chordie server. The original song is hosted at www.xguitar.com. Chordie works as a search engine and provides on-the-fly formatting. Chordie does not index songs against artists'/composers' will. To remove this song please click here.

This song is displayed as text-only. Transposing and tuning is only available for chordpro-songs.
Rate #1 of 1 versions

Login - add to songbook

SHARE PAGE  




You need to log in to post comments