C#mB
e--------------------------------------------------------------------------
b---------------------------5------------------------------4-------------
g---------------------6--------6--------------------4---------4-------
d------------------6----6--------6-------------4-------4--------4-----     X2 THEN
a--6~~--------4----------------------------2---------------------------
e-------------------------------------------------------------------------


 ABC#m
  -----------------------------------------------------------
  -------------------2-------------------------4--------------
  ------------2--------2---------------4--------4-----------
  ---------2----2--------2----------4----4-------4------6---
  ------0--------------------------2---------------------4---
  -------------------------------------------------------------

VERSE

 C#mC#mF#mEB
e---------------------------------------------------------------------------------------------
b----------------------------------------------------------------------------------------------
g------------------------------------------------------------------------------------------------
d------------------------------------------------------------------------------4-4-4-4444----
a------2h4---------------4-------------------------------------2-------------2-2-2-2222----
e---------------------------------------2--------------0-----------------------------------------


CHORUS

 ABC#mBAB
e--------------------------------------------------------------------------------------------------------------------------------------------------------------
b---------------2----------------------4--------------------6-----------------------4-------------------2------------------------------4--------------------
g--------2--------2-------------4-------4-----------6--------6--------------4-------4-----------2--------2---------------------4-------4-----------------
d-----2-----2-------2--------4---4-------4-------6---6--------6--------4-----4------4------2-----2--------2---------------4---4--------4--------------
a---0----------------------2--------------------4----------------------2---------------------0------------------------------2--------------------------------
e--------------------------------------------------------------------------------------------------------------------------------------------------------------


 C#m
e------------------------------------------------------------
b----------------5----------4-------5--------4---------------
g----------6--------6---------6--------6-------6-------------
d-------6----6---------6--------6--------6--------6----------
a----4-------------------------------------------------4-----
e------------------------------------------------------------


SOLO

e-----------------------------------------------------------------------------------------------------------------------------------------------------------------------------------
b--14--14--14--14--14^--(9)--10--12-------10/9/10---9h10p9------7---5---7--------7-------7----9-------------5--7---5--------7h9^--------9---12--9--14--12---
g-----------------------------------------------------------------------------------------9---------------------6----------------6------------------------------------------------
d-----------------------------------------------------------------------------------------------------------------------------------------------------------------------------------
a-----------------------------------------------------------------------------------------------------------------------------------------------------------------------------------
e-----------------------------------------------------------------------------------------------------------------------------------------------------------------------------------

2:38 2:42 2:53 3:00
e----------------------------------------------------------------------------------------------------------------------------------------------------------------------------------------------
b---16^--14--12--9---16^----14^-------14----12-----9----7~~---5h7-----7---5------5---------5h7p5------5--7^~~--7--12---9----------14^~---16^~---17^~--------------
g-------------------------------------------------------------------------------------------6--------6-------------6---------------------------------------------------------------------------
d-------------------------------------------------------------------------------------------------------------------------------------------------666------------------------------------------
a-------------------------------------------------------------------------------------------------------------------------------------------------444-actually played---------------------
e-------------------------------------------------------------------------------------------------------------------------------------------------------by 2nd guitar---------------12/0-----


THE LAST PART OF CHORUS AFTER SOLO

..alright
e----------------------------------------------------
b-----------------------------------------------------
g-----------------------------------------------------
d------------------------------------------------------
a----------4-----6------7----9-----7------6---------
e------------------------------------------------------













A B C#m E F#m
variations - click chord images
Transpose chords:
Tuning:
Cool service:
View: Size:
A  A  A
Rating:
Layout:
  • Currently 5/5 Stars.
  • 1
  • 2
  • 3
  • 4
  • 5
 
Accuracy:
  • Currently 3/5 Stars.
  • 1
  • 2
  • 3
  • 4
  • 5
 
click stars to rate
Chordie recommends:
Get acoustic guitar lessons and electric guitar lessons at JamPlay.com
Songbook:
Login to add this song to your songbook
Support the artist
Preview/buy this song
MSN Music
Why this non-profit ad?

 
login to add comments/video/corrections