Chordie logo

When Love and Death Embrace    H.I.M. (His Infernal Majesty)



HIM - When Love And Death Embrace
Guitarist - Mikko Lindstrom



Intro/Chorus
e-----------------------------------------------------------
B-----------------------------------------------------------
G-----------------------------4-4-4-4-4-4-4-7-7-7-7-7-7-7---
D-5-5-5-5-5-5-5-2-2-2-2-2-2-2-4-4-4-4-4-4-4-7-7-7-7-7-7-7-5-
A-5-5-5-5-5-5-5-2-2-2-2-2-2-2-2-2-2-2-2-2-2-5-5-5-5-5-5-5-5-
E-3-3-3-3-3-3-3-0-0-0-0-0-0-0-----------------------------3-


Pre-chorus
e----------------
B----------------
G-4-----7----\---
D-4-----7----\---
A-2-----5----\---
E----------------

Verse
e-------------------------------------------------------------
B-------------------------------------------------------------
G-------------------------------------------------------------
D-5-5-5-5-5-5-5-5-5-5-5-5-5-5-5-2-2-2-2-2-2-2-2-2-2-2-2-2-2-2-
A-5-5-5-5-5-5-5-5-5-5-5-5-5-5-5-2-2-2-2-2-2-2-2-2-2-2-2-2-2-2-
E-3-3-3-3-3-3-3-3-3-3-3-3-3-3-3-0-0-0-0-0-0-0-0-0-0-0-0-0-0-0-
  .....................Palm Muted.......................





Solo
e----------------------------------------------------------------------------------------
B----------------------------------------------------------------------------------------
G----------------------------------------------------------------------------------------
D----5-4----------------------------------5-4------------------------------/12-11--4-2-4-
A--------2-0-2---0-2-2b3-3r2-0----------------2-0-2---0-2-2b3-3r2-0----------------------
E-3------------3---------------3-2-3---3------------3---------------3-2-3----------------

e----------------------------------------------------------------------------------------
B----------------------------------------------------------------------------------------
G-0-2-4--4b5-5r4-2-0---0--/12-11--4-2-4--0-2-4--4b5-5r4-2-0---0--------------------------
D--------------------4--------------------------------------4----------------------------
A----------------------------------------------------------------------------------------
E----------------------------------------------------------------------------------------



Order:
Intro
Pre-chorus
Chorus
Verse
Pre-chorus
Chorus


Important: The song above is NOT stored on the Chordie server. The original song is hosted at www.xguitar.com. Chordie works as a search engine and provides on-the-fly formatting. Chordie does not index songs against artists/composers will. To remove this song please click here.

This song is displayed as text-only. Transposing and tuning is only available for chordpro-songs.

Login - add to songbook

Rating click stars to rate

Layout
Accuracy

SHARE PAGE  



You need to log in to post comments