Chordie logo

Circle of Fear    H.I.M. (His Infernal Majesty)



HIM - Circle of Fear
Tabbed By: craigy
Email: magicman4321@hotmail.com

Tuning: Standard (E A D G B E)




I only know the intro to this song but ill try my best to work the whole
thing out

Intro

e|-------------------------------------------------------------------|
B|-------------------------------------------------------------------|
G|------------2-----2------2-------------2------2---------2--0-0-----|
D|-5-5-7----2---2--------2---2---2-----2---2---------------------2---|
A|-5-5-7--0------0-----0-------0-----0-------0--------0-0------------|
E|-3-3-5-------------------------------------------------------------|

im not sure about the top part but ill work on it



E|----------------------------------------------------------------||
B|-----1--------1---------1-------1--------0----------------------||
G|---2---2----2---2-----2---2---2---2----2---2--------------------||
D|----------------------------------------------------------------||
A|-0--------3-----------------------------------------------------||
E|--------------------3--------3-------3--------------------------||



Important: The song above is NOT stored on the Chordie server. The original song is hosted at www.xguitar.com. Chordie works as a search engine and provides on-the-fly formatting. Chordie does not index songs against artists/composers will. To remove this song please click here.

This song is displayed as text-only. Transposing and tuning is only available for chordpro-songs.

Login - add to songbook

Rating click stars to rate

Layout
Accuracy

SHARE PAGE  

You need to log in to post comments