""; ?> The Sacrament by H.I.M. (His Infernal Majesty) - guitar chords, guitar tabs and lyrics - chordie
E|--------------------------5-------|--3-------------------------------|

B|--5-------5-------5-----------5---|------0-------0-------0-------0---|
G|------5-------5-------5-----5---5-|----0---0---0---0---0---0---0---0-|
D|----7---7---7---7---7---7---------|----------2-------2-------2-------| - 2
A|----------------------------------|----------------------------------|
E|--5-------------------------------|--0-------------------------------|
E|--------------------------5-------|--3---------------|--2---------------|
B|--5-------5-------5-----------5---|------0-------0---|------3-------3---|
G|------5-------5-------5-----5---5-|----0---0---0---0-|----2---2---2---2-|
D|----7---7---7---7---7---7---------|----------2-------|--0-------0-------|
A|----------------------------------|------------------|------------------|
E|--5-------------------------------|--0---------------|------------------|
E|--------------------------5-------|--3--|
B|--5-------5-------5-----------5---|-----|
G|------5-------5-------5-----5---5-|-----|
D|----7---7---7---7---7---7---------|-----|
A|----------------------------------|-----|
E|--5-------------------------------|--0--|

 EmAmC
 I  hear you breath so far from here
 AmC
feel your touch so close and real
 DEmCG
And I know my church is not of silver and gold
 DEmCG
 Its glory lies beyond judgment of souls
 DEmCD
 The commandments are of consolation and warmth

Chorus:
 CAmEm
 You know our sacred dream won't fail
 CAmEm
 The sanctuary tender and so frail
 CAm
 THE SACRAMENT of love
 EmDC
 The sacrament of warmth is true
 AmEm
The sacrament is you.

I hear you weep so far from here
I taste your tears like you're next to me
And I know my weak prayers are not enought to heal
The ancient wounds so deep and so dear
The revelation is of hatred and fear.

Chorus


Am C D Em G
variations - click chord images
Transpose chords:
Tuning:
Cool service:
View: Size:
A  A  A
Rating:
Layout:
  • Currently 3.3/5 Stars.
  • 1
  • 2
  • 3
  • 4
  • 5
 
Accuracy:
  • Currently 1.8/5 Stars.
  • 1
  • 2
  • 3
  • 4
  • 5
 
click stars to rate
Chordie recommends:
Get acoustic guitar lessons and electric guitar lessons at JamPlay.com
Songbook:
Login to add this song to your songbook
Support the artist
Preview/buy this song
MSN Music
Why this non-profit ad?

 
login to add comments/video/corrections