Guitar Tabs, Chords and Lyrics


Here We Go Again    Hives



Hives - Here We Go Again
Tabbed By: Chris
Email: cwsmith@together.net
Album - Barely Legal
Tuning - Standard - low to high (E A D G B E)

Note: I am pretty sure that there are a lot of synthesizers
in this song, as with a lot of Hives songs. I think this song
also includes one of their favorite little effects: a phase shifter,
though I could be wrong about that. I think this is a pretty
accurate tab so enjoy!

Legend:

+ - ringing feedback
LR - let ring
() - ghost note
\ - slide toward head of guitar
x - mute

0:00

Intro:

Fig. A

Gtr. 1 & 2

                          fdbk. + + + + + + + + + + +

e-----------------------------------------------------|
b-----------------------------------------------------|
g-----------------------------------------------------|
D---4-------------------------------------------------|
A---4-------------------------------------------------|
E---2-------------------------------------------------|

LR |..................................................|

Gtr. 1 & 2 play Fig. A x1

0:06

Gtr. 1 (slightly dirty)

Fig. B

e-------------------------------------------------------|
b-------------------------------------------------------|
g-------7-4---7-----7-----7------7-4---7----7-------7---|
D---4---7-4---7-7---7-2---7-7-4--7-4---7-7--7-7-4-7-7---|
A---4---5-2---5-7---5-2---5-7-4--5-2---5-7--5-7-4-7-5---|
E---2-----------5-----0-----5-2----------5----5-2-5-----|

Gtr. 1 plays Fig. B x2

0:17

Verse:

Fig. C

Gtr. 2 (clean) w/ phase shifter

      *                (w/ strong clean harmonics)

e---(14)\-|------------------------------------------------------|
b---------|------------------------------------------------------|
g---------|-------x-x-x---------------------x-x-x----------------|
D---------|-x-x-x-x-x-x-x-x-x--x-x-x--x-x-x-x-x-x-x-x-x--x-x-x---|
A---------|-x-x-x-x-x-x-x-x-x--x-x-x--x-x-x-x-x-x-x-x-x--x-x-x---|
E---------|-x-x-x-------x-x-x--x-x-x--x-x-x-------x-x-x--x-x-x---|

* first time only

Gtr. 1 plays Fig. B x2

Gtr. 2 plays Fig. C x2

0:30

Chorus:

Gtr. 1

Fig. D

e---------------------------------------------------------------------|
b---------------------------------------------------------------------|
g---------------------------------------------------4-4-4-4-4-4-4-4---|
D---4-4-4-4-4-4-4-4-4-4-4-4-4-4-4-4-7-7-7-7-7-7-7-7-4-4-4-4-4-4-4-4---|
A---4-4-4-4-4-4-4-4-4-4-4-4-4-4-4-4-7-7-7-7-7-7-7-7-2-2-2-2-2-2-2-2---|
E---2-2-2-2-2-2-2-2-2-2-2-2-2-2-2-2-5-5-5-5-5-5-5-5-------------------|

Gtr. 2 w/ phase shifter

Fig. E



e---(14)(14)(14)(14)(14)(14)(14)(14)(17)(17)(17)(17)(19)(19)(19)(19)---|
b----------------------------------------------------------------------|
g----------------------------------------------------------------------|
D----------------------------------------------------------------------|
A----------------------------------------------------------------------|
E----------------------------------------------------------------------|

Gtr. 1 plays Fig. D x2

Gtr. 2 plays Fig. E x2 (heavy synth overtones as well)

Gtr. 1 plays Fig. A x1 w/ half the original time

Verse 2:

Gtr. 1 plays Fig. B x2

Gtr. 2 plays Fig. C x2

Chorus 2:

Gtr. 1 plays Fig. D x2

Gtr. 2 plays Fig. E x2 (heavy synth overtones as well)

Gtr. 1 plays Fig. A x1 w/ half the original time

1:10

Bridge:

Gtr. 1 plays Fig. A

Gtr. 2 w/out phase shifter



e-----------------------------------------------------------------|
b-----------------------------------------------------------------|
g--------7-4--x-7----x-7----x-7------x-7-4--x--7------7-------7---|
D---4--x-7-4--x-7-7--x-7-2--x-7-7-4--x-7-4--x--7-7--x-7-7-4-7-7---|
A---4--x-5-2--x-5-7--x-5-2--x-5-7-4--x-5-2-(0)-5-7--x-5-7-4-7-5---|
E---2--x----------5------0------5-2--------------5--x---5-2-5-----|

1:20

At this point in my recording, and maybe in yours, the track appears
to skip. Intentional or not, on your OWN recording or not, it's on
mine.  I appologize if there is any part of the song at this point
other than what I have mentioned because I am unable to transcribe it
due to the nature of my own recording.

Verse 3:

Gtr. 1 plays Fig. B x2

Gtr. 2 plays Fig. C x2

Chorus:

Gtr. 1 plays Fig. D x4

Gtr. 2 plays Fig. E x4 (heavy synth overtones as well)

Gtr. 1 & 2 play Fig. A x1 (w/ synth ringing as well)

TRANSCRIBED LYRICS:

Verse 1:

A neon light is seen
'Bove ev'ry average teen
A sign spelling out a word
That none of us has ever heard

Chorus:

Fourteen bucks today
I get a new life tomorrow
New product rejects
Unhappy moments and sorrow
I'll take this one and that one
And then some more
I'll Use a piece of paper and the almighty pen -
Here we go again!

Verse 2:

A voice inside of me
Says insufficiency
How come it worked out for you?
I better try somethin' new

Chorus:

Fourteen bucks today
I get a new life tomorrow
New product rejects
Unhappy moments and sorrow
I'll take this one and that one
And then some more
I'll Use a piece of paper and the almighty pen -

Bridge:

NO LYRICS

Verse 3:

Not satisfied yet
Want to recieve and get
I believe that word
My inner voice is never left unheard

Chorus:

Fourteen bucks today
I get a new life tomorrow
New product rejects
Unhappy moments and sorrow
I'll take this one and that one
And then some more
I'll Use a piece of paper and the almighty pen -
Here we go again!
Here we go again!
Here we go again!


Important: The song above is NOT stored on the Chordie server. The original song is hosted at www.xguitar.com. Chordie works as a search engine and provides on-the-fly formatting. Chordie does not index songs against artists'/composers' will. To remove this song please click here.

This song is displayed as text-only. Transposing and tuning is only available for chordpro-songs.

Login - add to songbook

Rating click stars to rate

Layout
Accuracy

SHARE PAGE  




You need to log in to post comments