Guitar Tabs, Chords and Lyrics


King of Asskissing    Hives



The hives
king of asskissing

Intro
e|--------|
B|--------|
G|--------|
D|----4---|
A|----4---|
E|----2---|

verse
being the...
e|--------------------|
B|--------------------|
G|---------7----------|
D|----9----7---5---9--|
A|----9----5---5---9--|
E|----7--------3---7--|

he takes...
e|----------|
B|----------|
G|----------|
D|--5--7--x-|
A|--5--7--x-|
E|--3--5--x-|

that x is more of a harmonic on fret 7

Chorus
so once again...
e|---------------------------|
B|---------------------------|
G|---------------------------|
D|--5--7--4--9--5--7-------9-|
A|--5--7--4--9--5--7-pause-9-|
E|--3--5--2--7--3--5-------7-|

brige (after the piano does that little de dodedodedo thing)

e|-------------|
B|-------------|
G|--------7-10-|   x4
D|--9-9---7-10-|
A|--9-9---5--8-|
E|--7-7--------|

then
1  2  3  4  5  6  7  8
e|--------|
B|--------|
G|--------|
D|----4---|
A|----4---|
E|----2---|



Important: The song above is NOT stored on the Chordie server. The original song is hosted at www.xguitar.com. Chordie works as a search engine and provides on-the-fly formatting. Chordie does not index songs against artists'/composers' will. To remove this song please click here.

This song is displayed as text-only. Transposing and tuning is only available for chordpro-songs.

Login - add to songbook

Rating click stars to rate

Layout
Accuracy

SHARE PAGE  




You need to log in to post comments