Guitar Tabs, Chords and Lyrics


Abra Cadaver    Hives



The Hives - Abra Cadaver
Tabbed By: Pseudo
Email: acook1@attbi.com

Tuning: Standard (E A D G B E)

This song is incredibly simple. The only difference in the Verse and
Chorus is what the other instruments play.

Intro/Verse/Chorus
    B5               G5   A5    B5
e------------------------------------------|
B------------------------------------------|
G------------------------------------------|
D---9999999999999999-5555-77777-999999999--|
A---9999999999999999-5555-77777-999999999--|
E---7777777777777777-3333-55555-777777777--|

Outro Guitar 1
    B5
e---------------------|
B---------------------| x8
G---------------------|
D---------------------|
A---0-2-2-2-0-2-2-2---|
E---------------------|

Guitar 2

e---------------------|
B---------------------|
G---------------------| x8
D---9-9-9-9-9-9-9-9---|
A---9-9-9-9-9-9-9-9---|
E---7-7-7-7-7-7-7-7---|




Important: The song above is NOT stored on the Chordie server. The original song is hosted at www.xguitar.com. Chordie works as a search engine and provides on-the-fly formatting. Chordie does not index songs against artists/composers will. To remove this song please click here.

This song is displayed as text-only. Transposing and tuning is only available for chordpro-songs.

Login - add to songbook

Rating click stars to rate

Layout
Accuracy

SHARE PAGE  




You need to log in to post comments