Guitar Tabs, Chords and Lyrics


The Missing Link    Hives



Artist: The Hives
Song: Missing Link
Album: Tyrannosaurus Hives

Tabbed by: Devlin Morton devlin_morton@hotmail.com

Riff 1
e)--------------------------
b)--------------------------
g)--------------------------
d)-----5555666677778888-----
a)-----5555666677778888-----
E)-----3333444455556666-----

Verse/Chorus
e)----------------------------------
b)-----10--8--------10--8-----------
g)-----10--8--------10--8-----------
d)-----10--8--7--5--10--8--7--5-----
a)------------7--5---------7--5-----
E)----------------------------------

Pre-Chorus
e)-----------------
b)----------10-----
g)----------10-----
d)-----10-8-10-----
a)-----10-8--------
E)-----------------

Interlude
e)----------------------------------------------------------------------------
b)----------------------------------------------------------------------------
g)-----10-10-10-10-10-10-10-10-------------------------10-10-10-10-10-10-10-10
d)-----10-10-10-10-10-10-10-10-10-10-10-10-10-10-10-10-10-10-10-10-10-10-10-10
a)-----8--8--8--8--8--8--8--8--10-10-10-10-10-10-10-10-8--8--8--8--8--8--8--8-
E)-----------------------------8--8--8--8--8--8--8--8-------------------------

e)-----------------------
b)-----------------------
g)-----------------------
d)--5555666677778888-----
a)--5555666677778888-----


Important: The song above is NOT stored on the Chordie server. The original song is hosted at www.xguitar.com. Chordie works as a search engine and provides on-the-fly formatting. Chordie does not index songs against artists'/composers' will. To remove this song please click here.

This song is displayed as text-only. Transposing and tuning is only available for chordpro-songs.

Login - add to songbook

Rating click stars to rate

Layout
Accuracy

SHARE PAGE  




You need to log in to post comments