Guitar Tabs, Chords and Lyrics


No Pun Intended    Hives



I haven't seen any tabs for this song out yet considering this CD's fairly new, and its really awsome.
If you dont have it, get it right now.

Anyway, this songs pretty good. You just have to play it pretty
fast. Just play on a dirty distortion, not very heavy, just at the "garage" type of distortion. I have
nothing to compare my tab to at the moment, so bear with it and hopefully it will help,

I'm not exactly sure how accurate this is but it sounds alright to me.

Play this most of the song, in the beggining, verse and chorus
The strumming on the last note of each line is strummed alot, 16 times I think
Listen to the song for the correct timing.
E--------------------------------------------------------------
B--------------------------------------------------------------
G----------12-12-12--------------------------------------------
D---9-9-9--12-12-12--12-12-12-12-12-12-12-12-------------------
A---9-9-9--10-10-10--12-12-12-12-12-12-12-12-------------------
E---7-7-7------------10-10-10-10-10-10-10-10-------------------


E--------------------------------------------------------
B--------------------------------------------------------
G---------14-14-14-14-14-14-14-14------------------------
D--9-9-9--14-12-14-14-14-14-14-14---7-7-7---12-12-12-12-12-12-12-12---------
A--9-9-9--12-12-12-12-12-12-12-12---7-7-7---12-12-12-12-12-12-12-12--------
E--7-7-7----------------------------5-5-5---10-10-10-10-10-10-10-10---------

E-------------------------------------------------------------------------
B-------------------------------------------------------------------------
G----------12-12-12---------------------14-14-14-14-14-14-14-14-----------
D--9-9-9---12-12-12--12-12-12---9-9-9---14-14-14-14-14-14-14-14-----------
A--9-9-9---10-10-10--12-12-12---9-9-9---12-12-12-12-12-12-12-12-----------
E--7-7-7-------------10-10-10---7-7-7--------------------------------------

E---------------------------------------------------------
B---------------------------------------------------------
G---------------------------------------------------------
D---7-7-7----12-12-12-12-12-12-12-12----------------------
A---7-7-7----12-12-12-12-12-12-12-12----------------------
E---5-5-5----10-10-10-10-10-10-10-10----------------------

Repeat the part above many times, just play along with the song
to figure out how much, but that should fit.

After all that, theres a break. Its an alteration between
A and Bm I think, with some more chords at the end of it.
Once again, the strumming is extremley hard to figure out,
you just have to follow the song and play it by ear.

E---------------------------
B---------------------------
G---------------------------
D---7-7-7---9-9-9-----------
A---7-7-7---9-9-9-----------
E---5-5-5---7-7-7-----------

Repeat that a couple times, then

E---------------------------
B---------------------------
G---------------------------
D---9-9-9---12-12-12--------
A---9-9-9---12-12-12--------
E---7-7-7---10-10-10--------

And when Pelle Yells "No Pun! Intended!", just play
this along with the words.
E---------------------------
B--------------------------
G--------------------------
D------12-12---12-12-------
A------12-12---12-12-------
E------10-10---10-10-------

And thats it, really. Just repeat the beggining part for almost all the song. I'm not 100% on the middle
part but thats as close as I can get. The only problem you might come across is the timing, which can be a
problem to find in most Hives songs, considering how fast they play. But its not hard if you have a good ear.
Hope this helps.



Important: The song above is NOT stored on the Chordie server. The original song is hosted at www.xguitar.com. Chordie works as a search engine and provides on-the-fly formatting. Chordie does not index songs against artists'/composers' will. To remove this song please click here.

This song is displayed as text-only. Transposing and tuning is only available for chordpro-songs.

Login - add to songbook

Rating click stars to rate

Layout
Accuracy

SHARE PAGE  




You need to log in to post comments