Chordie logo


Walk Idiot Walk    Hives



Band: The Hives
Song: Walk Idiot Walk
Tabbed by: Mar90

Intro (for BASS only):
G|--------------------------------
D|--------------------------------
A|7-7-7-7-7-7-7-5-7-7-7-----------
E|------------------------0-3-0---    x2

Chorus/Bridge 1:
Guitar 1:
e|-------------------------------------------------
B|9-9----7---14-14----12---14h15----------------
G|9-9----7---14-14----12---14-------------------
D|9-9----7---14-14----12---14-------------------
A|-------------------------------------------------
E|-------------------------------------------------    x4

Guitar2:
e|-------------------------------------------------
B|11-11---9---14-14---12---14----------------------
G|11-11---9---14-14---12---14----------------------
D|11-11---9---14-14---12---14-16-------------------
A|9--9----7---12-12---10---12-14-------------------
E|-------------------------------------------------    x4

Verse:
Guitar 1:
e|-------------------------------------------------
B|-------------------------------------------------
G|9--9--9--9--9--9--9--9--9--9---------------------
D|12-12-12-11-11-11-10-10-10-9---------------------
A|-------------------------------------------------
E|------------------------------------------------- x8
  Slightly harder (but still easy)
  Sounds thicker, i like this 1 better!


Guitar 2: After each time guitar 1 plays the verses play this,
e|-------------------------------------------------
B|-------------------------------------------------
G|-------------------------------------------------
D|-------------------------------------------------
A|-------------------------------------------------
E|-------------------------------0-3-0-------------    x8

Chorus/Bridge 1:
Guitar 1:
e|-------------------------------------------------
B|9-9--7-7--14-14---12-12---14h15----------------------
G|9-9--7-7--14-14---12-12---14--------------------------
D|9-9--7-7--14-14---12-12---14---------------------------
A|-------------------------------------------------
E|-------------------------------------------------    x8

Guitar2:
e|-------------------------------------------------
B|11-11---9---14-14---12---14----------------------
G|11-11---9---14-14---12---14----------------------
D|11-11---9---14-14---12---14-16-------------------
A|9--9----7---12-12---10---12-14-------------------
E|-------------------------------------------------    x8

Bridge 2:                                                              _ _ _ _ _ _ _ _ _ _ _ _ _ _ _ _ _
Guitars 1 and 2:                                                      |You don't have to bend this you   |
e|--------------------------------------------------------------------|can use a wammy-bar which sounds  |---
B|--------------------------------------------------------------------|better but some people don't have |---
G|--------------------------------------------------------------------|----------------------------------|---
D|7--7--7--7--7--7--7--10-10-10-10-10-10-10-10-7--7--7--7--7--7--7--10|b-11b-10b-11b-10b-11b-10b-11b-7---|---
A|7--7--7--7--7--7--7--10-10-10-10-10-10-10-10-7--7--7--7--7--7--7--10|b-11b-10b-11b-10b-11b-10b-11b-7---|---
E|5--5--5--5--5--5--5--8--8--8--8--8--8--8--8--5--5--5--5--5--5--5--8-|b-9-b-8-b-9-b-8-b-9-b-8-b-9-b-5---|---

Chorus/Bridge 1:
Guitar 1:
e|-------------------------------------------------
B|9-9---7-7--14-14---12-12--14h15---------------------
G|9-9---7-7--14-14---12-12--14----------------------
D|9-9---7-7--14-14---12-12--14--------------------
A|--------------------------------------------------
E|-------------------------------------------------    x4

Guitar2:
e|-------------------------------------------------
B|11-11---9---14-14---12---14----------------------
G|11-11---9---14-14---12---14----------------------
D|11-11---9---14-14---12---14-16-------------------
A|9--9----7---12-12---10---12-14-------------------
E|-------------------------------------------------    x4

Verse:
Guitar 1:
e|-------------------------------------------------    e|0-0-0-0-0-0-0-0-0-0---------------------------
B|-------------------------------------------------    B|3-3-3-2-2-2-1-1-1-0---------------------------
G|9--9--9--9--9--9--9--9--9--9---------------------    G|----------------------------------------------
D|12-12-12-11-11-11-10-10-10-9--------------------- or D|----------------------------------------------
A|-------------------------------------------------    A|----------------------------------------------
E|------------------------------------------------- x8 E|---------------------------------------------- x8

Guitar 2:
e|-------------------------------------------------
B|-------------------------------------------------
G|-------------------------------------------------
D|-------------------------------------------------
A|-------------------------------------------------
E|-------------------------------0-3-0-------------    x8

Chorus/Bridge 1:
Guitar 1:
e|-------------------------------------------------
B|9-9--7-7--14-14---12-12--14h15---------------------
G|9-9--7-7--14-14---12-12--14----------------------
D|9-9--7-7--14-14---12-12--14--------------------
A|-------------------------------------------------
E|-------------------------------------------------    x8

Guitar2:
e|-------------------------------------------------
B|11-11---9---14-14---12---14----------------------
G|11-11---9---14-14---12---14----------------------
D|11-11---9---14-14---12---14-16-------------------
A|9--9----7---12-12---10---12-14-------------------
E|-------------------------------------------------    x8

Bridge 3:                                                             _ _ _ _ _ _ _ _ _ _ _ _ _ _ _ _ _
Guitar 1:                                                             |You don't have to bend this you   |
e|--------------------------------------------------------------------|can use a wammy-bar which sounds  |---
B|--------------------------------------------------------------------|better but some people don't have |---
G|--------------------------------------------------------------------|----------------------------------|---
D|7--7--7--7--7--7--7--10-10-10-10-10-10-10-10-7--7--7--7--7--7--7--10|b-11b-10b-11b-10b-11b-10b-11------|---
A|7--7--7--7--7--7--7--10-10-10-10-10-10-10-10-7--7--7--7--7--7--7--10|b-11b-10b-11b-10b-11b-10b-11------|---
E|5--5--5--5--5--5--5--8--8--8--8--8--8--8--8--5--5--5--5--5--5--5--8-|b-9-b-8-b-9-b-8-b-9-b-8-b-9-------|---

e|--------------------------------------------------------------------------------------------
B|--------------------------------------------------------------------------------------------
G|--------------------------------------------------------------------------------------------
D|10b-11b-10b-11b-10b-11b-10b-11----------------------------------10-11-10-11-10-11-10-11-7---
A|10b-11b-10b-11b-10b-11b-10b-11----------------------------------10-11-10-11-10-11-10-11-7---
E|8-b-9-b-8-b-9-b-8-b-9-b-8-b-9-----------------------------------8--9--8--9--8--9--8--9--5---
                                                                      _ _ _ _ _ _ _ _ _ _ _ _ _ _ _ _ _
Guitar 2:                                                             |You don't have to bend this you   |
e|--------------------------------------------------------------------|can use a wammy-bar which sounds  |---
B|--------------------------------------------------------------------|better but some people don't have |---
G|--------------------------------------------------------------------|----------------------------------|---
D|7--7--7--7--7--7--7--10-10-10-10-10-10-10-10-7--7--7--7--7--7--7--10|b-11b-10b-11b-10b-11b-10b-11------|---
A|7--7--7--7--7--7--7--10-10-10-10-10-10-10-10-7--7--7--7--7--7--7--10|b-11b-10b-11b-10b-11b-10b-11------|---
E|5--5--5--5--5--5--5--8--8--8--8--8--8--8--8--5--5--5--5--5--5--5--8-|b-9-b-8-b-9-b-8-b-9-b-8-b-9-------|---

e|--------------------------------------------------------------------------------------------
B|--------------------------------------------------------------------------------------------
G|--------------------------------------------------------------------------------------------
D|10b-11b-10b-11b-10b-11b-10b-11--------------------------------------------------7-----------
A|10b-11b-10b-11b-10b-11b-10b-11--------------------------------------------------7-----------
E|8-b-9-b-8-b-9-b-8-b-9-b-8-b-9------8b-9b-8b-9b-8b-9b-8b-9b------8-9-8-9-8-9-8-9-5-----------

Chorus/Bridge 1:
Guitar 1:
e|-------------------------------------------------
B|9-9---7-7--14-14---12-12--14h15---------------------
G|9-9---7-7--14-14---12-12--14----------------------
D|9-9---7-7--14-14---12-12--14--------------------
A|-------------------------------------------------
E|-------------------------------------------------    x4

Guitar2:
e|-------------------------------------------------
B|11-11---9---14-14---12---14----------------------
G|11-11---9---14-14---12---14----------------------
D|11-11---9---14-14---12---14-16-------------------
A|9--9----7---12-12---10---12-14-------------------
E|-------------------------------------------------    x4

Bass Solo (NO GUITARS):
G|--------------------------------
D|--------------------------------
A|7-7-7-7-7-7-7-5-7-7-7-----------
E|------------------------0-3-0---    x4

Chorus/Bridge 1:
Guitar 1:
e|-------------------------------------------------
B|9-9---7-7--14-14---12-12--14h15---------------------
G|9-9---7-7--14-14---12-12--14----------------------
D|9-9---7-7--14-14---12-12--14--------------------
A|-------------------------------------------------
E|-------------------------------------------------    x8

Guitar2:
e|-------------------------------------------------
B|11-11---9---14-14---12---14----------------------
G|11-11---9---14-14---12---14----------------------
D|11-11---9---14-14---12---14-16-------------------
A|9--9----7---12-12---10---12-14-------------------
E|-------------------------------------------------    x8

Bridge 2:                                                              _ _ _ _ _ _ _ _ _ _ _ _ _ _ _ _ _
Guitars 1 and 2:                                                      |You don't have to bend this you   |
e|--------------------------------------------------------------------|can use a wammy-bar which sounds  |---
B|--------------------------------------------------------------------|better but some people don't have |---
G|--------------------------------------------------------------------|----------------------------------|---
D|7--7--7--7--7--7--7--10-10-10-10-10-10-10-10-7--7--7--7--7--7--7--10|b-11b-10b-11b-10b-11b-10b-11b-7---|---
A|7--7--7--7--7--7--7--10-10-10-10-10-10-10-10-7--7--7--7--7--7--7--10|b-11b-10b-11b-10b-11b-10b-11b-7---|---
E|5--5--5--5--5--5--5--8--8--8--8--8--8--8--8--5--5--5--5--5--5--5--8-|b-9-b-8-b-9-b-8-b-9-b-8-b-9-b-5---|---

Outro:
Guitar 1:
e|-------------------------------------------------
B|11-11---9---14-14---12---14----------------------
G|11-11---9---14-14---12---14----------------------
D|11-11---9---14-14---12---14-15-------------------(jus this at the end cause it sounds near the same)
A|9--9----7---12-12---10---12-13-------------------
E|-------------------------------------------------

this took realy long to do so i hope it helped...
i was watchin the video and this is what they were doin.


Important: The song above is NOT stored on the Chordie server. The original song is hosted at www.xguitar.com. Chordie works as a search engine and provides on-the-fly formatting. Chordie does not index songs against artists/composers will. To remove this song please click here.

This song is displayed as text-only. Transposing and tuning is only available for chordpro-songs.

Login - add to songbook

Rating click stars to rate

Layout
Accuracy

SHARE PAGE  




You need to log in to post comments